busca

Closer

Pennywise

Tom: C
(intro guitar 1)
E |-------------------------------------------------------------------------|
B |-------------------------------------------------------------------------|
G |-------------------------------------------------------------------------|
D |-------------------------------------------------------------------------|
A |----33-22-------55-33-22----33-22-------55-33-22----33-22-------55-33-22-|
E |-55-------55-33----------55-------55-33----------55-------55-33----------|

(intro guitar 2)
E |-------------------------------------------------------------------------|
B |-------------------------------------------------------------------------|
G |-------------------------------------------------------------------------|
D |-77----------55----------77----------55----------77----------55----------|
A |-77----------55----------77----------55----------77-33-22----55-55-33-22-|
E |-55----------33----------55----------33----------55-------55-33----------|
pm                                                    .. .. ..    .. .. ..

(intro guitar 1)
E |--------------------------------------|
B |--------------------------------------|
G |--------------------------------------|
D |--------------------------------------|
A |----33-22-------55-33-22\\------------|
E |-55-------55-33-----------------------|

(intro guitar 2)
E |--------------------------------------|
B |--------------------------------------|
G |--------------------------------------|
D |-77----------55-----------------------|
A |-77-33-22----55-55-33-\\\pickslide\\\-|
E |-55-------55-33-----------------------|
pm    .. .. ..    .. ..

(pre-verse) (both guitars)
E |---------------------------------------------------------------|
B |---------------------------------------------------------------|
G |----55---5555------55---5555------55---5555------55---5555-----|
D |-77-55-5-5555-5-77-55-5-5555-5-77-55-5-5555-5-33-55-3-5555-5-7-|
A |-77-33-5-3333-5-77-33-5-3333-5-77-33-5-3333-5-33-33-3-3333-5-7-|
E |-55----3------3-55----3------3-55----3------3-11----1------3-5-|

(verse guitar 1) \"no answers,just questions..."\
E |-------------------------------------------------------------------------|
B |-------------------------------------------------------------------------|
G |-------------------------------------------------------------------------|
D |-------------------------------------------------------------------------|
A |----33-22-------55-33-22----33-22-------55-33-22----33-22-------55-33-22-|
E |-55-------55-33----------55-------55-33----------55-------55-33----------|
pm .. .. .. .. .. .. .. .. .. .. .. .. .. .. .. .. .. .. .. .. .. .. .. ..

(verse guitar 2)
E |-------------------------------------------------------------------------|
B |-------------------------------------------------------------------------|
G |-------------------------------------------------------------------------|
D |-------------------------------------------------77----------------------|
A |-------------------------------------------------77----------------------|
E |-------------------------------------------------55----------------------|
pm

(verse guitar 1)
E |--------------------------|
B |--------------------------|
G |--------------------------|
D |--------------------------|
A |----33-22-------55-33-22\-|
E |-55-------55-33-----------|
pm .. .. .. .. .. .. .. ..

(verse guitar 2)
E |--------------------------|
B |--------------------------|
G |--------------------------|
D |-77---------------------5-|
A |-77---------------------5-|
E |-55---------------------3-|
pm ..

(pre-chorus) (both guitars)\"nothing left to change..."\
E |--------------------------------------------------------------------|
B |--------------------------------------------------------------------|
G |----55---5555------55---5555------55---5555-------------------------|
D |-77-55-5-5555-5-77-55-5-5555-5-77-55-5-5555-5-33-33-3-3-333-55-55-5-|
A |-77-33-5-3333-5-77-33-5-3333-5-77-33-5-3333-5-33-33-3-3-333-55-55-5-|
E |-55----3------3-55----3------3-55----3------3-11-11-1-1-111-33-33-3-|

E |-----------------|
B |-----------------|
G |-----------------|
D |-\\\pickslide\\\-|
A |-----------------|
E |-----------------|

(chorus) (both guitars) \"just when i get closer..."\
E |-----------------------------------------------------------------|
B |-----------------------------------------------------------------|
G |-----------------55-555--------------------------55-555----------|
D |-77-777-3-33-333-55-555-5-55-555-77-777-3-33-333-55-555-5-55-555-|
A |-77-777-3-33-333-33-333-5-55-555-77-777-3-33-333-33-333-5-55-555-|
E |-55-555-1-11-111--------3-33-333-55-555-1-11-111--------3-33-333-|

(chorus) (both guitars) \"no chance to be..."\
E |---------------------------------|
B |---------------------------------|
G |-----------------55-555----------|
D |-77-777-3-33-333-55-555-5-55-555-|
A |-77-777-3-33-333-33-333-5-55-555-|
E |-55-555-1-11-111--------3-33-333-|
pm

(after chorus) (both guitars) \"just when i get closer..."\
E |-------------------------------------------------------|
B |-------------------------------------------------------|
G |-------------------------------------------------------|
D |-3-3333-3-33-3-33-3/5-5555-5-55-5-55-5/7-7777777777777-|
A |-3-3333-3-33-3-33-3/5-5555-5-55-5-55-5/7-7777777777777-|
E |-1-1111-1-11-1-11-1/3-3333-3-33-3-33-3/5-5555555555555-|
pm   ....   ..   ..     ....   ..   ..     ..........

(pre-verse)(both guitars)
E |---------------------------------------------------------------|
B |---------------------------------------------------------------|
G |----55---5555------55---5555------55---5555------55---5555-----|
D |-77-55-5-5555-5-77-55-5-5555-5-77-55-5-5555-5-33-55-3-5555-5-7-|
A |-77-33-5-3333-5-77-33-5-3333-5-77-33-5-3333-5-33-33-3-3333-5-7-|
E |-55----3------3-55----3------3-55----3------3-11----1------3-5-|

(verse guitar 1) \"this problem i'm feeling..."\
E |-------------------------------------------------------------------------|
B |-------------------------------------------------------------------------|
G |-------------------------------------------------------------------------|
D |-------------------------------------------------------------------------|
A |----33-22-------55-33-22----33-22-------55-33-22----33-22-------55-33-22-|
E |-55-------55-33----------55-------55-33----------55-------55-33----------|
pm .. .. .. .. .. .. .. .. .. .. .. .. .. .. .. .. .. .. .. .. .. .. .. ..

(verse guitar 2)
E |-------------------------------------------------------------------------|
B |-------------------------------------------------------------------------|
G |-------------------------------------------------------------------------|
D |-------------------------------------------------77----------------------|
A |-------------------------------------------------77----------------------|
E |-------------------------------------------------55----------------------|
pm

(verse guitar 1)
E |--------------------------|
B |--------------------------|
G |--------------------------|
D |--------------------------|
A |----33-22-------55-33-22\-|
E |-55-------55-33-----------|
pm .. .. .. .. .. .. .. ..

(verse guitar 2)
E |--------------------------|
B |--------------------------|
G |--------------------------|
D |-77---------------------5-|
A |-77---------------------5-|
E |-55---------------------3-|
pm ..

(pre-chorus) (both guitars)\"nothing left to change..."\
E |--------------------------------------------------------------------|
B |--------------------------------------------------------------------|
G |----55---5555------55---5555------55---5555-------------------------|
D |-77-55-5-5555-5-77-55-5-5555-5-77-55-5-5555-5-33-33-3-3-333-55-55-5-|
A |-77-33-5-3333-5-77-33-5-3333-5-77-33-5-3333-5-33-33-3-3-333-55-55-5-|
E |-55----3------3-55----3------3-55----3------3-11-11-1-1-111-33-33-3-|

(chorus) (both guitars) \"just when i get closer..."\
E |-----------------------------------------------------------------|
B |-----------------------------------------------------------------|
G |-----------------55-555--------------------------55-555----------|
D |-77-777-3-33-333-55-555-5-55-555-77-777-3-33-333-55-555-5-55-555-|
A |-77-777-3-33-333-33-333-5-55-555-77-777-3-33-333-33-333-5-55-555-|
E |-55-555-1-11-111--------3-33-333-55-555-1-11-111--------3-33-333-|

(chorus) (both guitars) \"no chance to be..."\
E |---------------------------------|
B |---------------------------------|
G |-----------------55-555----------|
D |-77-777-3-33-333-55-555-5-55-555-|
A |-77-777-3-33-333-33-333-5-55-555-|
E |-55-555-1-11-111--------3-33-333-|
pm

(after chorus) (both guitars) \"just when i get closer..."\
E |-------------------------------------------------------|
B |-------------------------------------------------------|
G |-------------------------------------------------------|
D |-3-3333-3-33-3-33-3/5-5555-5-55-5-55-5/7-7777777777777-|
A |-3-3333-3-33-3-33-3/5-5555-5-55-5-55-5/7-7777777777777-|
E |-1-1111-1-11-1-11-1/3-3333-3-33-3-33-3/5-5555555555555-|
pm   ....   ..   ..     ....   ..   ..     ..........

(bridge guitar 2) \"just when i think that..."\
E |------------------------------------------|
B |------------------------------------------|
G |-1010-101010--------777-------------------|
D |-1010-101010-101010-777-7-77777-7-77777-7-|
A |--8-8--8-8-8-101010-555-7-77777-7-77777-7-|
E |--------------8-8-8-----5-55555-5-55555-5-|

(bridge guitar 1)
E |------------------------------------------|
B |------------------------------------------|
G |------------------------7-99999\7-99999\7-|
D |------------------------x-xxxxx-x-xxxxx-x-|
A |------------------------5-77777\5-77777\5-|
E |------------------------------------------|

(bridge guitar 2) \"these answers drift and slip away..."\
E |------------------------------------------|
B |------------------------------------------|
G |-1010-101010--------777-------------------|
D |-1010-101010-101010-777-7-77777-7-77777-7-|
A |--8-8--8-8-8-101010-555-7-77777-7-77777-7-|
E |--------------8-8-8-----5-55555-5-55555-5-|

(bridge guitar 1)
E |------------------------------------------|
B |------------------------------------------|
G |------------------------7-99999\7-99999\7-|
D |------------------------x-xxxxx-x-xxxxx-x-|
A |------------------------5-77777\5-77777\5-|
E |------------------------------------------|

(bridge guitar 2) \"just 1 more chance..."\
E |------------------------------------------|
B |------------------------------------------|
G |-1010-101010--------777-------------------|
D |-1010-101010-101010-777-7-77777-7-77777-7-|
A |--8-8--8-8-8-101010-555-7-77777-7-77777-7-|
E |--------------8-8-8-----5-55555-5-55555-5-|

(bridge guitar 1)
E |-------------------------------------------|
B |-------------------------------------------|
G |------------------------7-99999\7-99999999-|
D |------------------------x-xxxxx-x-xxxxxxxx-|
A |------------------------5-77777\5-77777777-|
E |-------------------------------------------|
                                   \louder/

(bridge guitar 2) \"these questions drift..."\
E |----------------------------------|
B |----------------------------------|
G |-1010-101010--------777-----------|
D |-1010-101010-101010-777-7-77777-7-|
A |--8-8--8-8-8-101010-555-7-77777-7-|
E |--------------8-8-8-----5-55555-5-|

(bridge guitar 1)
E |--------------------------------------------------|
B |--------------------------------------------------|
G |------------------------7-99999\7-----------------|
D |------------------------x-xxxxx-x-\\\pickslide\\\-|
A |------------------------5-77777\5-----------------|
E |--------------------------------------------------|

(chorus) (both guitars) \"just when i get closer..."\
E |-----------------------------------------------------------------|
B |-----------------------------------------------------------------|
G |-----------------55-555--------------------------55-555----------|
D |-77-777-3-33-333-55-555-5-55-555-77-777-3-33-333-55-555-5-55-555-|
A |-77-777-3-33-333-33-333-5-55-555-77-777-3-33-333-33-333-5-55-555-|
E |-55-555-1-11-111--------3-33-333-55-555-1-11-111--------3-33-333-|

(chorus) (both guitars) \"no chance to be..."\
E |---------------------------------|
B |---------------------------------|
G |-----------------55-555----------|
D |-77-777-3-33-333-55-555-5-55-555-|
A |-77-777-3-33-333-33-333-5-55-555-|
E |-55-555-1-11-111--------3-33-333-|

(chorus) (both guitars) \"just when i get closer..."\
E |---------------------------------|
B |---------------------------------|
G |-----------------55-555----------|
D |-77-777-3-33-333-55-555-5-55-555-|
A |-77-777-3-33-333-33-333-5-55-555-|
E |-55-555-1-11-111--------3-33-333-|

(solo) rythm guitar 2 \"just when i get closer..."\
E |-----------------------------------------------------------------|
B |-----------------------------------------------------------------|
G |-----------------55-555--------------------------55-555----------|
D |-77-777-3-33-333-55-555-5-55-555-77-777-3-33-333-55-555-5-55-555-|
A |-77-777-3-33-333-33-333-5-55-555-77-777-3-33-333-33-333-5-55-555-|
E |-55-555-1-11-111--------3-33-333-55-555-1-11-111--------3-33-333-|

(solo) rythm guitar 2 \"just when i get closer..."\
E |-----------------------------------------------------------------|
B |-----------------------------------------------------------------|
G |-----------------55-555--------------------------55-555----------|
D |-77-777-3-33-333-55-555-5-55-555-77-777-3-33-333-55-555-5-55-555-|
A |-77-777-3-33-333-33-333-5-55-555-77-777-3-33-333-33-333-5-55-555-|
E |-55-555-1-11-111--------3-33-333-55-555-1-11-111--------3-33-333-|

(outro) (both guitars) \"...away..."\
E |-----------------------------------|
B |-----------------------------------|
G |---------------------55---5555-----|
D |-7-77777777777777-77-55-5-5555-5-7-|
A |-7-77777777777777-77-33-5-3333-5-7-|
E |-5-55555555555555-55----3------3-5-|
pm   ...........

Clipes