busca

Devine Intervention

Pennywise

Tabbed By: Ansel Bretz
EMail: *

Standard Tuning (EADG)


Intro/Chorus

G---------------------------------------------------------------
D---------------------------------------------------------------
A-2-2-0-0-0-X-------------2-2-0-0-0-X---------------------------
E-------------0-0-3-3-2-2-------------0-0-0-3-3-3-3-------------

G---------------------------------------------------------------
D------------------------------------2-2-2-2-2-2-2--------------
A-2-2-0-0-0-X------------2-2-0-0-0-X----------------------------
E-------------0-0-3-3-2-2---------------------------------------

Little Bass Fill

G---------------------------------------------------------------
D----0-2-0------------------------------------------------------
A-2---------3-2-------------------------------------------------
E---------------------------------------------------------------

Verse (Every fourth time replace the 0's with 2's on the D string)

G----------------------------------------------------------------
D----------------------------------------------------------------
A-2-2-2-2-2-2-2-2-5-5-5-5-5-5-5-5--------------------------------
E---------------------------------3-3-3-3-3-3-3-3-0-0-0-0-0-0-0-0

Build Up

G---------------------------------------------------------------
D---------------------------------------------------------------
A---------------------------------------------------------------
E-0-0-0-0-0-0-0-0-0-0-0-0-0-0-0-0-------------------------------

song order:

Intro 1x
Bass Fill 4x
Verse 4x
Chorus 1x
Verse 2x
Chorus 1x
Verse 4x
Chorus 1x
Verse 2x
Chorus 1x
Bass Fill 4x
Verse 4x
Build Up 1x
Verse 4x
Chrous 1x

That's it.

Clipes