busca

Divine intervention

Pennywise

Tom: B
INTRO                                 INTRO END
 3x                                   on 4th time end on E5 not the F#5
e|---------------------------|         |---------------|
h|---------------------------|         |---------------|
g|4--4-4-2--2-2--------------|         |9-9-9-9-9-9-9-9|
d|4--4-4-2--2-2(2)(2)5-5-4---|         |9-9-9-9-9-9-9-9|
a|2--2-2-0--0-0(2)(2)5-5-4---|         |7-7-7-7-7-7-7-7|
e|--------------0--0-3-3-2---|         |---------------|
                . .     *palm mute four times on the 
                P P      2nd time playin the intro

then play B5 2x then a pickslide and then again a B5

e|-|
h|-|
g|4|
d|4|
a|2|
e|-|
 VERSE if your in a band the bass plays this
g|---------------------------------------------------------------|
d|---------------------------------------------------------------|
a|2-2-2-2-2-2-2-2-5-5-5-5-5-5-5-5--------------------------------|
e|--------------------------------3-3-3-3-3-3-3-3-0-0-0-0-0-0-0-0|
  2 times just bass guitar then comes the e guitar in with the same shit palm muted
e|---------------------------------------------------------------|
h|---------------------------------------------------------------|
g|---------------------------------------------------------------|
d|4-4-4-4-4-4-4-4-7-7-7-7-7-7-7-7--------------------------------|
a|2-2-2-2-2-2-2-2-5-5-5-5-5-5-5-5-5-5-5-5-5-5-5-5-2-2-2-2-2-2-2-2|
e|--------------------------------3-3-3-3-3-3-3-3-0-0-0-0-0-0-0-0|

 2x 2nd time end on E5
e|-----------------|
h|-----------------|
g|9-9-9-9-9-9-9-9--|
d|9-9-9-9-9-9-9-9--|
a|7-7-7-7-7-7-7-7--|
e|0-0-0-0-0-0-0-0--|

 PRE CHORUS=INTRO

 CHORUS (verse not palm muted) 2x
e|-------------------------------------------------------------|
h|-------------------------------------------------------------|
g|4-4-4-4-4-4-4-7-7-7-7-7-7-7-7--------------------------------|
d|4-4-4-4-4-4-4-7-7-7-7-7-7-7-7-5-5-5-5-5-5-5-5-2-2-2-2-2-2-2-2|
a|2-2-2-2-2-2-2-5-5-5-5-5-5-5-5-5-5-5-5-5-5-5-5-2-2-2-2-2-2-2-2|
e|------------------------------3-3-3-3-3-3-3-3-0-0-0-0-0-0-0-0|

INTRO
VERSE 
PRE CHORUS
CHORUS
INTRO
INTRO END
VERSE just guitar
VERSE without palm muting
PRE CHORUS
PRE CHORUS
INTRO

End on the B5 

Clipes

Cifra Club Pro

Aproveite o Cifra Club com benefícios exclusivos e sem anúncios
7 dias grátis
Cifra Club Pro
Aproveite o Cifra Club com benefícios exclusivos e sem anúncios
7 dias grátis