busca

Down Under(cover)

Pennywise

Tom: C

Nice try scott burke,he had all the chords correct but the number of strums
was completely wrong.I know most of you could figure that out for yourself but
for the beginners i did this.

Intro: x2
e|---------------------------------------------------------------------------|
B|---------------------------------------------------------------------------|
G|--555**-----------------555**----------------------------------------------|
D|--555**555**777**33--55-555**555**777**35----------------------------------|
A|--333**555**777**33--55-333**555**777**35----------------------------------|
E|-------333**555**11--33------333**555**13----------------------------------|
   **In between each chord change there is a very quick up and downstroke.
Dont use all down strokes,use up and down strokes or the rhythm wont sound right
this goes for the verse and chorus.Theres a pick scrape between the intro and
the verse in the begining listen to the song for it.

Verse: x4
e|---------------------------------------------------------------------------|
B|---------------------------------------------------------------------------|
G|---------------------------------------------------------------------------|
D|--77777--55555--77777--33-55-----------------------------------------------|
A|--77777?-55555--77777--33-55-----------------------------------------------|
E|--55555pm33333pm55555pm11-33-----------------------------------------------|
Also Listen to the song for the rhythm.Theres also a slight pause between the
third and fourth strum of the 577 and 355 chord.

Then repeat chorus and verse again

Chorus: x4
e|---------------------------------------------------------------------------|
B|---------------------------------------------------------------------------|
G|--555**--------------------------------------------------------------------|
D|--555**555**777**33--55----------------------------------------------------|
A|--333**555**777**33--55----------------------------------------------------|
E|-------333**555**11--33----------------------------------------------------|

Solo:
e|---------------------------------------------------------------------------|
B|---------------------------------------------------------------------------|
G|-10-10-9-9-10-9-7------------10-10-9-9-7----------10-10-9-9-10-12-14-------|
D|-----------------------------------------7---------------------------------|
A|---------------------------------------------------------------------------|
E|---------------------------------------------------------------------------|

Sorry i cant figure out the really fast part of the solo

Then repeat verse x4 then chorus x4

Then finish and let it ring
e|---------------------------------------------------------------------------|
B|---------------------------------------------------------------------------|
G|--5------------------------------------------------------------------------|
D|--5--5?-7------------------------------------------------------------------|
A|--3--5--7------------------------------------------------------------------|
E|-----3--5?-----------------------------------------------------------------|

Clipes