busca

Dying To Know

Pennywise

Tom: F
Intro:
E|-------------------------------------------------------------------------|
B|-15-15-15-15-------------------------------------------------------------|
G|-14-14-14-14-13br-13b-12-13-13-------12-13-12----------------------------|
D|-------------------------------15-15----------12-12-14-14-15-15-14-(x2)--|
A|-------------------------------------------------------------------------|
E|-------------------------------------------------------------------------|

E|-------------------------------------------------------------------------|
B|-------------------------------------------------------------------------|
G|-------------------------------------------------------------------------|
D|-12-12-14-14-15-15-14-12\(8/12)------------------------------------------|
A|-------------------------------------------------------------------------|
E|-------------------------------------------------------------------------|

Verso:
E|-------------------------------------------------------------------------|
B|-------------------------------------------------------------------------|
G|-7-7-7-7-10-10---------------------------5-5-5---------------------------|
D|-7-7-7-7-10-10-10-10-10-10-9-5-5-5-5-7-3-5-5-5---------------------------|
A|-5-5-5-5-8--8--10-10-10-10-9-5-5-5-5-7-3-3-3-3---------------------------|
E|---------------8--8--8--8--7-3-3-3-3-5-1---------------------------------|
   p p p   p        p  p  p      p p p

E|-------------------------------------------------------------------------|
B|-------------------------------------------------------------------------|
G|-7-----------------------------------------------------------------------|
D|-7-10-9-5-7-3------------------------------------------------------------|
A|-5-10-9-5-7-3------------------------------------------------------------|
E|---8--7-3-5-1------------------------------------------------------------|

E|-------------------------------------------------------------------------|
B|-------------------------------------------------------------------------|
G|-7-10----7-10------------------------------------------------------------|
D|-7-10-10-7-10-3-5--------------------------------------------------------|
A|-5-8--10-5-8--3-5--------------------------------------------------------|
E|------8-------1-3--------------------------------------------------------|

Solo:
E|-------------------------------------------------------------------------|
B|-15-----13----------------------15------18-17-15-13-13-15-18-18-17-17----|
G|-14-13b-------------------------14-13br----------------------------------|
D|----------15----14-15-15p14-12~------------------------------------------|
A|-------------15----------------------------------------------------------|
E|-------------------------------------------------------------------------|

E|-------------------------------------------------------------------------|
B|-15-13-15----------------------------------------------------------------|
G|------------------5-7-10-7-10-7-10-7-7-5---------------------------------|
D|--------------5-7------------------------7-5-----------------------------|
A|----------5-8--------------------------------8-7-5---7-8-7---------------|
E|---------------------------------------------------8---------------------|

E|-------------------------------------------------------------------------|
B|-------------------------------------------------------------------------|
G|---7-7-5---5---5---5-7(pinch harmonic)-5h7p5---7b------------------------|
D|---------7---7---7---------------------------7---------------------------|
A|-5-----------------------------------------------------------------------|
E|-------------------------------------------------------------------------|

Clipes

Cifra Club Pro

Aproveite o Cifra Club com benefícios exclusivos e sem anúncios
7 dias grátis
Cifra Club Pro
Aproveite o Cifra Club com benefícios exclusivos e sem anúncios
7 dias grátis