busca

Every Single Day

Pennywise

Tom: B
From: Rambozo 

"EVERY SINGLE DAY"
featured on "About Time"

intro:
e-|--------------------------------------------------------------------------
B-|--------------------------------------------------------------------------
G-|----------------9-9-9-----------------------9-11-9------------------9-9-9-
D-|-11-11-11-7-7-7-9-9-9-9-9-9--11-11-11-7-7-7-9-11-9-9-11-11-11-7-7-7-9-9-9-
A-|-11-11-11-7-7-7-7-7-7-9-9-9--11-11-11-7-7-7-7--9-7-9-11-11-11-7-7-7-7-7-7-
E-|--9--9--9-5-5-5-------7-7-7---9--9--9-5-5-5--------7--9--9--9-5-5-5-------

e-|---------------|
B-|---------------|
G-|---------------|
D-|-9-9-9-6-7-6-4-| repeat
A-|-9-9-9---------|
E-|-7-7-7---------|

Verse:
e-|-------------------------------------------------------------------
B-|-------------------------------------------------------------------
G-|----------------9-9-9----------------------9-11-9------------------
D-|-11-11-11-7-7-7-9-9-9-9-9-9-11-11-11-7-7-7-9-11-9-9-11-11-11-7-7-7-
A-|-11-11-11-7-7-7-7-7-7-9-9-9-11-11-11-7-7-7-7--9-7-9-11-11-11-7-7-7-
E-|--9--9--9-5-5-5-------7-7-7--9--9--9-5-5-5--------7--9--9--9-5-5-5-

e-|-----------------|
B-|-----------------|
G-|-9-9-9-------6-8-|i'm not too sure about the last two chords there...
D-|-9-9-9-9-9-9-6-8-|if you find something that fits please e-mail me 
A-|-7-7-7-9-9-9-4-6-|and let me know... thanx...
E-|-------7-7-7-----|

chorus:
e-|-------------------------------------------------------------------------
B-|-------------------------------------------------------------------------
G-|-------------------------------------------------------------------------
D-|-11-11-11-11-7-7-7-7-9-9-9-9-4-4-4-4-11-11-11-11-7-7-7-7-9-9-9-9-4-4-4-4-
A-|-11-11-11-11-7-7-7-7-9-9-9-9-4-4-4-4-11-11-11-11-7-7-7-7-9-9-9-9-4-4-4-4-
E-|--9--9--9--9-5-5-5-5-7-7-7-7-2-2-2-2--9--9--9--9-5-5-5-5-7-7-7-7-2-2-2-2-

e-|---------------------------------------------------------------------|
B-|---------------------------------------------------------------------|
G-|---------------------------------------------------------------------|
D-|-11-11-11-11-7-7-7-7-9-9-9-9-4-4-4-4-11-11-11-11-7-7-7-7-9-9-9-9-9-9-|
A-|-11-11-11-11-7-7-7-7-9-9-9-9-4-4-4-4-11-11-11-11-7-7-7-7-9-9-9-9-9-9-|
E-|--9--9--9--9-5-5-5-5-7-7-7-7-2-2-2-2--9--9--9--9-5-5-5-5-7-7-7-7-7-7-|

uhm.. hmm.. thats it... have fun with it... as usual i didn't tab the 
rythym out correctly but hey... its hard to show the rythym using 
tablature... uhm... theres been alot of people sending requests to me 
which is cool and feel free to keep them coming but don't send anymore 
off their albums right now (i have alot of time on my hand at the moment 
okay...) uhm... lemme see... ( i hope that request part doesn't sound 
egotistical... i just like figuring songs out for people...)
transcribed by rambozo *

Clipes

Cifra Club Pro

Aproveite o Cifra Club com benefícios exclusivos e sem anúncios
7 dias grátis
Cifra Club Pro
Aproveite o Cifra Club com benefícios exclusivos e sem anúncios
7 dias grátis