busca

Everytime

Pennywise

Tom: D
E |-------------------------------------------------------------|
B |-------------------------------------------------------------|
G |--5-------8--10---5-------8--10---5-------8--10--------10----|
D |--5----6--8--10---5----6--8--10---5----6--8--10---8----10----|
A |--3----6--6--8----3----6--6--8----3----6--6--8----8----8-----|
E |-------4---------------4---------------4----------6----------|

E |--------------------------------------------------------------------|
B |--8-88-88-88-9-8-6-8----8-88-88-88-9-8-6-8----8-88-88-88-9-8-6-8----|
G |--------------------------------------------------------------------|
D |--------------------------------------------------------------------|
A |--------------------------------------------------------------------|
E |--------------------------------------------------------------------|

E |---------------------------------------------------------|
B |---------------------------------------------------------|
G |--5-xxxxxxx-5-xxxxxx-5----5---8-------10---5---8---10----|
D |--5-xxxxxxx-5-xxxxxx-5----5---8---6---10---5---8---10----|
A |--3-xxxxxxx-3-xxxxxx-3----3---6---6---8----3---6---8-----|
E |----------------------------------4----------------------|

E |-------------------------------------------------------|
B |-------------------------------------------------------|
G |--5------8--10---5-----8------5------8--10-------10----|
D |--5---6--8--10---5--6--8--8---5---6--8--10--8----10----|
A |--3---6--6--8----3--6--6--8---3---6--6--8---8----8-----|
E |------4-------------4-----6-------4---------6----------|

E |---------------------------------------------8---------------------------|
B |----8-9-8-6~-4-4-6p4-3~-----8-9-8-6~-4~-3~---8-6b7r6b7r6---------8-6b7r6-|
G |--5-----------------------5------------------------------8~--5-8---------|
D |-------------------------------------------------------------------------|
A |-------------------------------------------------------------------------|
E |-------------------------------------------------------------------------|

E |-----------------6p4p3-----------------6p4p3---------------------------|
B |-8p6p4-6p4-8p6p4-------8p6p4-6p4-8p6p4-------6b7r6b7r6b7r6--4~---------|
G |---------------------------------------------------------------3/5~----|
D |-----------------------------------------------------------------------|
A |-----------------------------------------------------------------------|
E |-----------------------------------------------------------------------|

Clipes

Cifra Club Pro

Aproveite o Cifra Club com benefícios exclusivos e sem anúncios
Cifra Club Pro
Aproveite o Cifra Club com benefícios exclusivos e sem anúncios