busca

Final Day

Pennywise

Tom: G#
intro.and.verse:
e-|-------------------------------------------------------------------------
B-|-------------------------------------------------------------------------
G-|-------------------------------------------------------------------------
D-|---------6-6-5-5-8-8-8-8-----------------6-6-5-5-8-8-8-8-----------------
A-|-3-3-3-3-4-4-3-3-6-6-6-6-6-6-5-5-3-3-3-3-4-4-3-3-6-6-6-6-6-6-5-5-3-------
E-|-1-1-1-1-----------------4-4-3-3-1-1-1-1-----------------4-4-3-3-1-------
<....................palmmute..............................>

e-|------------------------------------------------------------|
B-|------------------------------------------------------------|
G-|------------------------------------------------------------|
D-|-------6-6-5-5-8-8-8-8-----------------6-6-5-5-8-8-8-8-13^/-|
A-|-3-3-3-4-4-3-3-6-6-6-6-6-6-5-5-3-3-3-3-4-4-3-3-6-6-6-6-11^/-|
E-|-1-1-1-----------------4-4-3-3-1-1-1-1----------------------|
<..........................palmmute......................>
verse.is.basically.the.same.except.you.don't.slide.down.from.the.
11th.fret.in.the.verse.
before.going.into.the.chorus.just.end.on.the.6th.fret.on.the.A.string.

chorus:
e-|-----------------------------------------------------------------
B-|-----------------------------------------------------------------
G-|-----------------------------------------------------------------
D-|-5-5-5-5-5-5-5-5-----------------5-5-5-5-5-5-5-5-----------------
A-|-3-3-3-3-3-3-3-3-3-3-3-3-3-3-3-3-3-3-3-3-3-3-3-3-3-3-3-3-3-3-3-3-
E-|-----------------1-1-1-1-1-1-1-1-----------------1-1-1-1-1-1-1-1-

e-|-----------------------------------------------------------------
B-|-----------------------------------------------------------------
G-|-----------------------------------------------------------------
D-|-5-5-5-5-5-5-5-5---------------------------------5-5-5-5-5-5-5-5-
A-|-3-3-3-3-3-3-3-3-3-3-3-3-3-3-3-3-6-6-6-6-6-6-6-6-3-3-3-3-3-3-3-3-
E-|-----------------1-1-1-1-1-1-1-1-4-4-4-4-4-4-4-4-----------------

e-|-----------------------------------------------------------------
B-|-----------------------------------------------------------------
G-|-----------------------------------------------------------------
D-|-----------------5-5-5-5-5-5-5-5-----------------5-5-5-5-5-5-5-5-
A-|-3-3-3-3-6-6-6-6-3-3-3-3-3-3-3-3-3-3-3-3-6-6-6-6-3-3-3-3-3-3-3-3-
E-|-1-1-1-1-4-4-4-4-----------------1-1-1-1-4-4-4-4-----------------

e-|-------------------------------------------------------------------------
B-|-------------------------------------------------------------------------
G-|-------------------------------------------------------------------------
D-|-----------------5-5-5-5-5-5-5-5--5-5--5-5-----------------5-5-5-5-5-5-5-
A-|-3-3-3-3-6-6-6-6-3-3-3-3-3-3-3-3--3-3--3-3-6-6-6-6-6-6-6-6-3-3-3-3-3-3-3-
E-|-1-1-1-1-4-4-4-4---------------------------4-4-4-4-4-4-4-4---------------

e-|------------------------------------------------------------|
B-|------------------------------------------------------------|
G-|------------------------------------------------------------|
D-|------------------------------------------------------------|
A-|-3-3-3--3-3-3--3-3-3-6-6-5-5-3-3-3--3-3-3--8-8-8-8--6-6-6-6-|
E-|-1-1-1--1-1-1--1-1-1-4-4-3-3-1-1-1--1-1-1--6-6-6-6--4-4-4-4-|

e-|--------------------------------------------|
B-|--------------------------------------------|
G-|--------------------------------------------|
D-|--------------------------------------------|
A-|-3-3-3-6-6-5-5-3-3-3--3-3-3-8-8-8-8-6-6-6-6-|
E-|-1-1-1-4-4-3-3-1-1-1--1-1-1-6-6-6-6-4-4-4-4-|

Clipes