busca

Greed

Pennywise

Tom: G#
INTRO/VERSE
E|------------|---|
B|------------|---|
G|-------6-8--|---|
D|-3-6-8-6-8--|-3-|
A|-3-6-8-4-6--|-3-|
E|-1-4-6------|-1-|

      CHORUS
E|----------|-------|
B|----------|-------|
G|-10-8-----|-------| play 2nd part of chorus
D|-10-8-6-8-|-3-8-6-| after you play the first
A|-8--6-6-8-|-3-8-6-| part 4x
E|------4-6-|-1-6-4-|
     
thats basically the whole song....just figure out the strum pattern
and you'll have it.

Clipes

Cifra Club Pro

Aproveite o Cifra Club com benefícios exclusivos e sem anúncios
7 dias grátis
Cifra Club Pro
Aproveite o Cifra Club com benefícios exclusivos e sem anúncios
7 dias grátis