busca

Jeff Munt

Pennywise

Tom: D
intro/chorus:
e-|-------------------------------------------------------------------------
B-|-------------------------------------------------------------------------
G-|------------------------------------------11-12--------------------------
D-|-9-9-9-9-9-9-9-11-----------------9-9-9-9--x-xx---------7-7-7-7--9-9-9-9-
A-|-7-7-7-7-7-7-7--9-5-5-5-5-5-5-5-5-7-7-7-7--9-10-5-5-5-5-5-5-5-5--7-7-7-7-
E-|------------------3-3-3-3-3-3-3-3---------------3-3-3-3------------------

e-|----------------------------------------------------|------|
B-|----------------------------------------------------|------|
G-|----------------------------------------------------|------|
D-|-9-9-9-11-----------------4-4-4-4-4-4-4-4-7-4-2-7-9-|-9--9-|
A-|-7-7-7--9-5-5-5-5-5-5-5-5-2-2-2-2-2-2-2-2-5-2-0-5-7-|-7--7-|
E-|----------3-3-3-3-3-3-3-3---------------------------|------|

verse:
e-|-----------------------------------------------------------------|
B-|-----------------------------------------------------------------|
G-|-----------------------------------------------------------------|
D-|-9-9-----5-5-7-7-9-9-----5-5-7-7-9-9-----5-5-7-7-4-4-4-4-7-4-2-4-|
A-|-7-7-5-7-3-3-5-5-7-7-5-7-3-3-5-5-7-7-5-7-3-3-5-5-2-2-2-2-5-2-0-2-|
E-|-----3-5-------------3-5-------------3-5-------------------------|

Clipes