busca

Land Down Under

Pennywise

Tom: C
Tabbed by Ben, *.
  
Intro And Chorus

e|-----------------------------------------|
B|-----------------------------------------|
G|--5-5-5-xx-------------------------------|
D|--5-5-5-xx-5-5-5-xx-7-7-7-xx-3-xx-5-xx---|
A|--3-3-3-xx-5-5-5-xx-7-7-7-xx-3-xx-5-xx---|
E|-----------3-3-3-xx-5-5-5-xx-1-xx-3-xx---|

Verse

e|---------------------------------|
B|---------------------------------|
G|---------------------------------|
D|-7-7-7-7-5-5-5-5-7-7-7-7-3-3-5---|
A|-7-7-7-7-5-5-5-5-7-7-7-7-3-3-5---|
E|-5-5-5-5-3-3-3-3-5-5-5-5-1-1-3---| 

:: Ultimate Guitar Archive :: 
http://* 

Clipes