busca

Lies

Pennywise

Tom: D
(intro) (guitar 1 with low distortion)
E |----------------------------------------------------------|
B |----------------------------------------------------------|
G |--------666--------------6----------666-----------6---8-6-|
D |-888-XX-666-XX-666-XX-44-6-6-888-XX-666-XX-666-XX-6-6-8-6-|
A |-888-XX-444-XX-666-XX-44-4-6-888-XX-444-XX-666-XX-4-6-6-4-|
E |-666-XX-----XX-444-XX-22---4-666-XX-----XX-444-XX---4-----|

E |----------------------------------------------|
B |----------------------------------------------|
G |--------666--------------6----------666-------|
D |-888-XX-666-XX-666-XX-44-6-6-888-XX-666-XX-6~-|
A |-888-XX-444-XX-666-XX-44-4-6-888-XX-444-XX-6~-|
E |-666-XX-----XX-444-XX-22---4-666-XX-----XX-4~-|

(pre-verse guitar 1)
E |----------------------------------------------|
B |----------------------------------------------|
G |------6666---------6--------6666------6---8-6-|
D |-8888-6666-6666-44-6-6-8888-6666-6666-6-6-8-6-|
A |-8888-4444-6666-44-4-6-8888-4444-6666-4-6-6-4-|
E |-6666------4444-22---4-6666------4444---4-----|

(pre-verse guitar 2)
E |-----------------------------------------------------------------------|
B |-----------------------------------------------------------------------|
G |-101010\8-101010\8-101010\8-10/11\10\8-101010\8-101010\8-10\88\66\55\3-|
D |--x-x-x-x--x-x-x-x--x-x-x-x--x--x--x-x--x-x-x-x--x-x-x-x--x-xx-xx-xx-x-|
A |--8-8-8\6--8-8-8\6--8-8-8\6--8/-9\-8-6--8-8-8\6--8-8-8\6--8\66\44\33\1-|
E |-----------------------------------------------------------------------|

(pre-verse guitar 1)
E |------------------------------------------------------|
B |------------------------------------------------------|
G |------6666---------6--------6666----------------------|
D |-8888-6666-6666-44-6-6-8888-6666-6666-\\\pickslide\\\-|
A |-8888-4444-6666-44-4-6-8888-4444-6666-----------------|
E |-6666------4444-22---4-6666------4444-----------------|

(pre-verse guitar 2)
E |-----------------------------------------------------------------------|
B |-----------------------------------------------------------------------|
G |-101010\8-101010\8-101010\8-10/11\10\8-101010\8-101010\8-10\88\66\55\3~|
D |--x-x-x-x--x-x-x-x--x-x-x-x--x--x--x-x--x-x-x-x--x-x-x-x--x-xx-xx-xx-x-|
A |--8-8-8\6--8-8-8\6--8-8-8\6--8/-9\-8-6--8-8-8\6--8-8-8\6--8\66\44\33\1~|
E |-----------------------------------------------------------------------|

(verse guitar 1) (notes in brackets plays bass) \"what can you believe..."\
E |------------------------------------------------------------------------|
B |------------------------------------------------------------------------|
G |----------------66--------------6------------------66-----------6---8-6-|
D |-------88-------66--------66-44-6-6-------88-------66--------66-6-6-8-6-|
A |-------88-(4)(4)44--------66-44-4-6-------88-(4)(4)44--------66-4-6-6-4-|
E |-(6)(6)66-----------(4)(4)44-22---4-(6)(6)66-----------(4)(4)44---4-----|

 (verse a guitar 2)
E |------------------------------------------------------------------------|
B |------------------------------------------------------------------------|
G |--------------------------------6-------------------------------6---8-6-|
D |-----------------------------44-6-6-----------------------------6-6-8-6-|
A |-----------------------------44-4-6-----------------------------4-6-6-4-|
E |-----------------------------22---4-------------------------------4-----|

 (verse a guitar 1) \"the human disease..."\
E |------------------------------------------------------------------------|
B |------------------------------------------------------------------------|
G |----------------66--------------6------------------66-----------6---8-6-|
D |-------88-------66--------66-44-6-6-------88-------66--------66-6-6-8-6-|
A |-------88-(4)(4)44--------66-44-4-6-------88-(4)(4)44--------66-4-6-6-4-|
E |-(6)(6)66-----------(4)(4)44-22---4-(6)(6)66-----------(4)(4)44---4-----|

 (verse a guitar 2)
E |------------------------------------------------------------------------|
B |------------------------------------------------------------------------|
G |--------------------------------6-------------------------------6---8-6-|
D |-----------------------------44-6-6-----------------------------6-6-8-6-|
A |-----------------------------44-4-6-----------------------------4-6-6-4-|
E |-----------------------------22---4-------------------------------4-----|

 (verse b) \"you can't wish it away..."\
E |----------------------------------------------|
B |----------------------------------------------|
G |------6666---------6--------6666------6---8-6-|
D |-8888-6666-6666-44-6-6-8888-6666-6666-6-6-8-6-|
A |-8888-4444-6666-44-4-6-8888-4444-6666-4-6-6-4-|
E |-6666------4444-22---4-6666------4444---4-----|

(verse b) \"to find some escape..."\
E |----------------------------------------------|
B |----------------------------------------------|
G |------6666---------6--------6666------6---8-6-|
D |-8888-6666-6666-44-6-6-8888-6666-6666-6-6-8-6-|
A |-8888-4444-6666-44-4-6-8888-4444-6666-4-6-6-4-|
E |-6666------4444-22---4-6666------4444---4-----|

(pre-chorus) \"and you know that its true..."\
E |--------------------|
B |--------------------|    pause
G |--------------------|
D |-33333333-4444-6666-| 1 + 2 + 3 + 4
A |-33333333-4444-6666-|
E |-11111111-2222-4444-|

(chorus) \"LIES...."\
E |---------------------------------------------|
B |---------------------------------------------|
G |------6666---------6--------6666---------6---|
D |-8888-6666-6666-44-6-6-8888-6666-6666-44-6-6-|
A |-8888-4444-6666-44-4-6-8888-4444-6666-44-4-6-|
E |-6666------4444-22---4-6666------4444-22---4-|

(chorus) \"LIES...."\
E |---------------------------------------------|
B |---------------------------------------------|
G |------6666---------6--------6666---------6---|
D |-8888-6666-6666-44-6-6-8888-6666-6666-44-6-6-|
A |-8888-4444-6666-44-4-6-8888-4444-6666-44-4-6-|
E |-6666------4444-22---4-6666------4444-22---4-|

(after chorus) \"and you can't deny..."\
E |--------------------|
B |--------------------|    pause
G |--------------------|
D |-33333333-4444-6666-| 1 + 2 + 3 + 4
A |-33333333-4444-6666-|
E |-11111111-2222-4444-|

(pre-verse guitar 1)
E |----------------------------------------------|
B |----------------------------------------------|
G |------6666---------6--------6666------6---8-6-|
D |-8888-6666-6666-44-6-6-8888-6666-6666-6-6-8-6-|
A |-8888-4444-6666-44-4-6-8888-4444-6666-4-6-6-4-|
E |-6666------4444-22---4-6666------4444---4-----|

(pre-verse guitar 2)
E |-----------------------------------------------------------------------|
B |-----------------------------------------------------------------------|
G |-101010\8-101010\8-101010\8-10/11\10\8-101010\8-101010\8-10\88\66\55\3-|
D |--x-x-x-x--x-x-x-x--x-x-x-x--x--x--x-x--x-x-x-x--x-x-x-x--x-xx-xx-xx-x-|
A |--8-8-8\6--8-8-8\6--8-8-8\6--8/-9\-8-6--8-8-8\6--8-8-8\6--8\66\44\33\1-|
E |-----------------------------------------------------------------------|

(pre-verse guitar 1)
E |------------------------------------------------------|
B |------------------------------------------------------|
G |------6666---------6--------6666----------------------|
D |-8888-6666-6666-44-6-6-8888-6666-6666-\\\pickslide\\\-|
A |-8888-4444-6666-44-4-6-8888-4444-6666-----------------|
E |-6666------4444-22---4-6666------4444-----------------|

(pre-verse guitar 2)
E |-----------------------------------------------------------------------|
B |-----------------------------------------------------------------------|
G |-101010\8-101010\8-101010\8-10/11\10\8-101010\8-101010\8-10\88\66\55\3~|
D |--x-x-x-x--x-x-x-x--x-x-x-x--x--x--x-x--x-x-x-x--x-x-x-x--x-xx-xx-xx-x-|
A |--8-8-8\6--8-8-8\6--8-8-8\6--8/-9\-8-6--8-8-8\6--8-8-8\6--8\66\44\33\1~|
E |-----------------------------------------------------------------------|

(verse a guitar 1) (notes in brackets plays bass) \"what's hiding under..."\
E |------------------------------------------------------------------------|
B |------------------------------------------------------------------------|
G |----------------66--------------6------------------66-----------6---8-6-|
D |-------88-------66--------66-44-6-6-------88-------66--------66-6-6-8-6-|
A |-------88-(4)(4)44--------66-44-4-6-------88-(4)(4)44--------66-4-6-6-4-|
E |-(6)(6)66-----------(4)(4)44-22---4-(6)(6)66-----------(4)(4)44---4-----|

(verse a guitar 2)
E |------------------------------------------------------------------------|
B |------------------------------------------------------------------------|
G |--------------------------------6-------------------------------6---8-6-|
D |-----------------------------44-6-6-----------------------------6-6-8-6-|
A |-----------------------------44-4-6-----------------------------4-6-6-4-|
E |-----------------------------22---4-------------------------------4-----|

(verse a guitar 1) \"and do you just pretend..."\
E |------------------------------------------------------------------------|
B |------------------------------------------------------------------------|
G |----------------66--------------6------------------66-----------6---8-6-|
D |-------88-------66--------66-44-6-6-------88-------66--------66-6-6-8-6-|
A |-------88-(4)(4)44--------66-44-4-6-------88-(4)(4)44--------66-4-6-6-4-|
E |-(6)(6)66-----------(4)(4)44-22---4-(6)(6)66-----------(4)(4)44---4-----|

(verse a guitar 2)
E |------------------------------------------------------------------------|
B |------------------------------------------------------------------------|
G |--------------------------------6-------------------------------6---8-6-|
D |-----------------------------44-6-6-----------------------------6-6-8-6-|
A |-----------------------------44-4-6-----------------------------4-6-6-4-|
E |-----------------------------22---4-------------------------------4-----|

(verse b) \"can you show me some proof..."\
E |----------------------------------------------|
B |----------------------------------------------|
G |------6666---------6--------6666------6---8-6-|
D |-8888-6666-6666-44-6-6-8888-6666-6666-6-6-8-6-|
A |-8888-4444-6666-44-4-6-8888-4444-6666-4-6-6-4-|
E |-6666------4444-22---4-6666------4444---4-----|

(verse b) \"it's the human excuse..."\
E |----------------------------------------------|
B |----------------------------------------------|
G |------6666---------6--------6666------6---8-6-|
D |-8888-6666-6666-44-6-6-8888-6666-6666-6-6-8-6-|
A |-8888-4444-6666-44-4-6-8888-4444-6666-4-6-6-4-|
E |-6666------4444-22---4-6666------4444---4-----|

(pre-chorus) \"and you know that its true..."\
E |--------------------|
B |--------------------|    pause
G |--------------------|
D |-33333333-4444-6666-| 1 + 2 + 3 + 4
A |-33333333-4444-6666-|
E |-11111111-2222-4444-|

(chorus) \"LIES...."\
E |---------------------------------------------|
B |---------------------------------------------|
G |------6666---------6--------6666---------6---|
D |-8888-6666-6666-44-6-6-8888-6666-6666-44-6-6-|
A |-8888-4444-6666-44-4-6-8888-4444-6666-44-4-6-|
E |-6666------4444-22---4-6666------4444-22---4-|

(chorus) \"LIES...."\
E |---------------------------------------------|
B |---------------------------------------------|
G |------6666---------6--------6666---------6---|
D |-8888-6666-6666-44-6-6-8888-6666-6666-44-6-6-|
A |-8888-4444-6666-44-4-6-8888-4444-6666-44-4-6-|
E |-6666------4444-22---4-6666------4444-22---4-|

(after chorus) \"and you can't deny..."\
E |--------------------|
B |--------------------|
G |--------------------|
D |-33333333-4444-6666-|
A |-33333333-4444-6666-|
E |-11111111-2222-4444-|

(solo) rythm (solo very hard to tab so i didn't do it) \"...lies..."\
E |----------------------------------------------|
B |----------------------------------------------|
G |------6666---------6--------6666------6---8-6-|
D |-8888-6666-6666-44-6-6-8888-6666-6666-6-6-8-6-|
A |-8888-4444-6666-44-4-6-8888-4444-6666-4-6-6-4-|
E |-6666------4444-22---4-6666------4444---4-----|

E |---------------------------------------------|
B |---------------------------------------------|
G |------6666---------6--------6666-------------|
D |-8888-6666-6666-44-6-6-8888-6666-6666-66-6-6-|
A |-8888-4444-6666-44-4-6-8888-4444-6666-66-6-6-|
E |-6666------4444-22---4-6666------4444-44-4-4-|

(bridge) \"it's only ourselves we're deceiving..."\
E |-------------------------------------------------------|
B |-------------------------------------------------------|
G |-8888888888888888/1111111111111111/1313131313131313----|
D |-8888888888888888/1111111111111111/1313131313131313----|
A |-6666666666666666/-9-9-9-9-9-9-9-9/1111111111111111\\--|
E |-------------------------------------------------------|

(chorus) \"LIES...."\
E |---------------------------------------------|
B |---------------------------------------------|
G |------6666---------6--------6666---------6---|
D |-8888-6666-6666-44-6-6-8888-6666-6666-44-6-6-|
A |-8888-4444-6666-44-4-6-8888-4444-6666-44-4-6-|
E |-6666------4444-22---4-6666------4444-22---4-|

(chorus) \"LIES...."\
E |-----------------------------------------------|
B |-----------------------------------------------|
G |------6666---------6--------6666-------6---8-6-|
D |-8888-6666-6666-44-6-6-8888-6666-6666--6-6-8-6-|
A |-8888-4444-6666-44-4-6-8888-4444-6666--4-6-6-4-|
E |-6666------4444-22---4-6666------4444----4-----|

(chorus) \"LIES...."\
E |---------------------------------------------|
B |---------------------------------------------|
G |------6666---------6--------6666---------6---|
D |-8888-6666-6666-44-6-6-8888-6666-6666-44-6-6-|
A |-8888-4444-6666-44-4-6-8888-4444-6666-44-4-6-|
E |-6666------4444-22---4-6666------4444-22---4-|

(chorus) \"LIES...."\
E |---------------------------------------------|
B |---------------------------------------------|
G |------6666---------6--------6666---------6---|
D |-8888-6666-6666-44-6-6-8888-6666-6666-44-6-6-|
A |-8888-4444-6666-44-4-6-8888-4444-6666-44-4-6-|
E |-6666------4444-22---4-6666------4444-22---4-|

(outro) \"and you can't deny..."\
E |--------------------|
B |--------------------|
G |--------------------|
D |-33333333-4444-6666-|
A |-33333333-4444-6666-|
E |-11111111-2222-4444-|

Clipes

Cifra Club Pro

Aproveite o Cifra Club com benefícios exclusivos e sem anúncios
7 dias grátis
Cifra Club Pro
Aproveite o Cifra Club com benefícios exclusivos e sem anúncios
7 dias grátis