busca

Long Road

Pennywise

Tom: A
I hope it works I think it does but it´s one of my first tabs so don´t expect too much 
please rate it, anyway I think it´s the only tab for this great song...


E-Mail for changes: *

Intro
e:--------------------------------------------------------|
b:--------------------------------------------------------|
g:--------------------------------------------------------|
d:-4-----------5-----------6-----------7-7--7-7--7-7--7-7-|
a:-4-----------5-----------6-----------7-7--7-7--7-7--7-7-|
e:-2-----------3-----------4-----------5-5--5-5--5-5--5-5-|

e:---------------------------------------------------------------------------|
b:---------------------------------------------------------------------------|
g:---------5-5-5-5-7--5--7--8--7--8----------5-5-5-5-------------------------|
d:-7-7-7-7-5-5-5-5-7--5--7--8--7--8--7-7-7-7-5-5-5-5-5-x-x-x-5-x-x-x-5-7-----|
a:-7-7-7-7-3-3-3-3-5--3--5--6--5--6--7-7-7-7-3-3-3-3-5-x-x-x-5-x-x-x-5-7-----|
e:-5-5-5-5---------------------------5-5-5-5---------3-x-x-x-3-x-x-x-3-5-----|

Verse
e:---------------------------------------------------------------------------|
b:---------------------------------------------------------------------------|
g:---------------------------------------------------------------------------|
d:-7-x-x-x-7-x-x-x-7-x-x-x-7-x-x-x---7-----5-----8-----8-10-12-/13-----------|
a:-7-x-x-x-7-x-x-x-7-x-x-x-7-x-x-x--7-----5-----8-----8-10-12-/13------------|
e:-5-x-x-x-5-x-x-x-5-x-x-x-5-x-x-x---5-----3-----6-----6--8-10-/11-----------|
                                                 "Can't...   hey...

*
e:5---------------7------------------------------------------------|
b:5---------------7------------------------------------------------|
g:-----------------------------------------------------------------|
d:-----------------------------------------------------------------|
a:-----------------------------------------------------------------|
e:-----------------------------------------------------------------|

e:------------------------------------------------------------------|
b:------------------------------------------------------------------|
g:-------------------------------------------5-5-5-5--5--7--8--7--8-|
d:-7---5---8---8-----7---5---8---7---7-7-7-7-5-5-5-5----------------|
a:-7---5---8---8-----7---5---8---7---7-7-7-7-3-3-3-3----------------|
e:-5---3---6---6-----5---3---6---5---5-5-5-5------------------------|
    world....  talking.... Gotta...  because..can't

Chorus
e:-----------------------------------------------------|
b:-----------------------------------------------------|
g:---------5-5-5-5--------------------7--5--7--8--5--7-|
d:-7-7-7-7-5-5-5-5------------>>3x

Clipes