busca

My Own Country

Pennywise

Tom: G
INTRO/VERSE
E|-----------------|
B|-----------------|
G|-/4-/4-----------| /= slide into chord
D|-/4-/4-/5-/2-/7--| play 1 time
A|-/2-/2-/5-/2-/7--|
E|-------/3-/0-/5--|

    Intro (part 2)/CHORUS
E|-----------------|-----------------|-------|
B|-----------------|-----------------|-------|
G|-4-4-----4-4---9-|-4-4-----4-4-----|----9--|
D|-4-4-5-7-4-4-5-9-|-4-4-5-7-4-4-5-7-|-2-----|
A|-2-2-5-7-2-2-5-7-|-2-2-5-7-2-2-5-7-|-2--7--|
E|-----3-5-----3---|-----3-5-----3-5-|-0-----|


 after last 2 chorus's
E|---------|---|------------|
B|---------|---|------------|
G|-4-4-----|-9-|-9-10-11-12-|
D|-4-4-5-2-|---|------------|
A|-2-2-5-2-|-7-|-7-8--9--10-|
E|-----3-0-|---|------------|


i dont think i forgot anything, sorry if i did.

Clipes

Cifra Club Pro

Aproveite o Cifra Club com benefícios exclusivos e sem anúncios
Cifra Club Pro
Aproveite o Cifra Club com benefícios exclusivos e sem anúncios