busca

Need More

Pennywise

Tom: C
John/ JoB*
This is my first tab so throw me a frickin' bone here.  This is only part of the song and I figured it out in like 5 min.  It is probably wrong, but sounds kinda close.

e ----------------------------------------------------
b ----------------------------------------------------
g -9--9-9-9-9-x-x-x-x-x---5--5-5-5-5-x-x-x-x-x--------
d -9--9-9-9-9-x-x-x-x-x---5--5-5-5-5-x-x-x-x-x--------
A -7--7-7-7-7-x-x-x-x-x---3--3-3-3-3-x-x-x-x-x--------
E ----------------------------------------------------


e ----------------------------------------------------
b ----------------------------------------------------
g -7--7-7-7-7-x-x-x-x-x-------------------------------
d -7--7-7-7-7-x-x-x-x-x---7-10-9-7--------------------
A -5--5-5-5-5-x-x-x-x-x---7-10-9-7--------------------
E ------------------------5-8--7-5--------------------

Clipes