busca

Nowhere Fast

Pennywise

Riff 1

G|---------------------------|---------------------------|
D|---------------------------|---------------------------|
A|-7-5-0-00000--3------------|-7-5-0-00000--3-5-7-77777--|
E|----------------3-0-00000--|---------------------------|(5x)

Riff 2

G|----------------------|
D|----------------------|
A|-7777777--5-00--5-00--|
E|----------------------|(4x)

Riff 3

G|--------------------------------------|
D|--------------------------------------|
A|-333------333-------555------555------|
E|-----3333-----3333------5555-----5555-|

G|--------------------------------------|
D|--------------------------------------|
A|-333------333-------555------555--555-|
E|-----3333-----3333------5555----------|

Riff 1

G|---------------------------|---------------------------|
D|---------------------------|---------------------------|
A|-7-5-0-00000--3------------|-7-5-0-00000--3-5-7-77777--|
E|----------------3-0-00000--|---------------------------|(3x)

Riff 2

G|----------------------|
D|----------------------|
A|-7777777--5-00--5-00--|
E|----------------------|(4x)

Riff 3

G|--------------------------------------|
D|--------------------------------------|
A|-333------333-------555------555------|
E|-----3333-----3333------5555-----5555-|

G|--------------------------------------|
D|--------------------------------------|
A|-333------333-------555------555--5-5-|
E|-----3333-----3333------5555----------|

Riff 1

G|---------------------------|---------------------------|
D|---------------------------|---------------------------|
A|-7-5-0-00000--3------------|-7-5-0-00000--3-5-7-77777--|
E|----------------3-0-00000--|---------------------------|

Riff 4

G|--------------------------------------|-------------------------------------|
D|--------------------------------------|-------------------------------------|
A|-55555555----------7777777-5-777777-5-|-55555555--------------7-77-----7-77-|
E|----------55555555--------------------|---------5555-3-5-000------000-------|

G|--------------------------------------|-------------------------------------|
D|--------------------------------------|-------------------------------------|
A|-55555555----------7777777-5-777777-5-|-55555555----------------------------|
E|----------55555555--------------------|---------5555-3-5-0-0-0-0-0-0-0-0-0-0|

Riff 5

G|----------------------------|---------------------------------|
D|----------------------------|---------------------------------|
A|-7-----5-------5-3----------|-7-----5-------5-3---5--7-777777-|
E|---------5-------------3-0--|---------5-----------------------|(3x)

Riff 1

G|---------------------------|---------------------------|
D|---------------------------|---------------------------|
A|-7-5-0-00000--3------------|-7-5-0-00000--3-5-7-77777--|
E|----------------3-0-00000--|---------------------------|(3x)

Riff 3

G|--------------------------------------|
D|--------------------------------------|
A|-333------333-------555------555------|
E|-----3333-----3333------5555-----5555-|

G|--------------------------------------|
D|--------------------------------------|
A|-333------333-------555------555--555-|
E|-----3333-----3333------5555----------|

Riff 1

G|---------------------------|---------------------------|
D|---------------------------|---------------------------|
A|-7-5-0-00000--3------------|-7-5-0-00000--3-5-7-77777--|
E|----------------3-0-00000--|---------------------------|(2x)

Clipes

Cifra Club Pro

Aproveite o Cifra Club com benefícios exclusivos e sem anúncios
7 dias grátis
Cifra Club Pro
Aproveite o Cifra Club com benefícios exclusivos e sem anúncios
7 dias grátis