busca

One Voice

Pennywise

Tom: E
(intro and main riff)
E |------------------------------------------------------------------------
B |------------------------------------------------------------------------
G |------------------------------------------------------------------------
D |-----6--6---7---6--6------2--2---6--2--2-------4------7---6---9-9---7---
A |-----4--4---4---4--4------0--0---0--0--0-------4------7---6---9-9---7---
E |-----------------------------------------------2------5---4---7-7---5---

(right before the pick slide)
D |--6--4--6--4--6--4--6---------------
A |--4--4--4--4--4--4--4---------------

(chorus)
E |------------------------------------------------------
B |------------------------------------------------------
G |--6---9------------6---9------------------------------
D |--6---9---7---9----6---9---7---9---7---6----(4)--(6)--
A |--4---7---7---9----4---7---7---9---7---6----(4)--(6)--
E |----------5---7------------5---7---5---4----(2)--(4)--

E |---------------
B |---------------
G |---------------
D |--2---1--------
A |----------2----
E |---------------

(outro)
E |---------------------------------------------
B |---------------------------------------------
G |-------6----------------9--------------------
D |-------6-------7--------9------9-------------
A |-------4-------7--------7------9-------------
E |---------------5---------------7-------------

Clipes

Cifra Club Pro

Aproveite o Cifra Club com benefícios exclusivos e sem anúncios
7 dias grátis
Cifra Club Pro
Aproveite o Cifra Club com benefícios exclusivos e sem anúncios
7 dias grátis