busca

Opendoor

Pennywise

Tabbed by:Dave Parisi

G:---------------------------------------
D:-- -------------------------------------
A:-5-5-5---5-5-5-------3-5-5-5-------3-
E:---------------------------------------

G:---------------------------------------------------------------
D:--------3-5-3--------3-5-3---------3-5-3---------------------
A:-5-5-5-------3-5-5-5-------3-5-5-5-------3-3-3-6-6-3-3-6-6-
E:--------- ------------------------------------------------------

G:---------------------------------------------------------------------
D:------------------3-3-3-3-3-3-3-3---------------------3-3------3-3-
A:-5-5-5-5-5-5-5-5-----------------1-1-1-1-1-1-1-1-3-3-----3-3------
E:- --------------------------------------------------------------------

G:------------------
D:------------------
A:-3-3-3-3-3-3-3-3-
E:------------------

Clipes

Cifra Club Pro

Aproveite o Cifra Club com benefícios exclusivos e sem anúncios
7 dias grátis
Cifra Club Pro
Aproveite o Cifra Club com benefícios exclusivos e sem anúncios
7 dias grátis