busca

Perfect People

Pennywise

Best viewed using Courier New font


Intro:
|-----------|-----------|-------------|--------------|
|*----------|-----------|-------------|-------------*|
|*--R-r-3-5-|-R-R-r-3---|-R-R-r-5-3-0-|-------------*|(x4)
|-5---------|---------3-|-------------|-R-R-0-2-3-4--|
  1 2 3 & 4   1 2 3 & 4   1 2 3 & 4 &   1 2 3 & 4 &

Yeah Part:
|----------|---------|---------|----------|
|*---------|---------|---------|---------*|
|*-0-0-0-0-|-5-5-5-5-|---------|-0-0-0-0-*|(x4)
|----------|---------|-3-3-3-3-|----------|
   1 2 3 4   1 2 3 4   1 2 3 4   1 2 3 4

Verse:
|---------|---------|---------|---------|---------|---------|
|---------|---------|---------|---------|---------|---------|
|-0-0-0-0-|-3-5-5-5-|-5-5-5-5-|---------|-0-0-0-0-|-0-0-0-0-|
|---------|---------|---------|-3-3-3-0-|---------|---------|
  1 2 3 4   1 2 3 4   1 2 3 4   1 2 3 4   1 2 3 4   1 2 3 4 
|---------|
|---------|
|-0-0-0-0-|
|---------|
  1 2 3 4

Second Part of Verse 1:
|---------|---------|---------|---------|---------|---------|
|---------|---------|---------|---------|---------|---------|
|-5-5-5-5-|---------|-0-0-0-0-|-0-0-0-0-|-5-5-5-5-|---------|
|---------|-3-3-3-3-|---------|---------|---------|-3-3-3-3-|
  1 2 3 4   1 2 3 4   1 2 3 4   1 2 3 4   1 2 3 4   1 2 3 4
|---------|
|---------|
|-0-0-0-0-|
|---------|
  1 2 3 4

Chorus:
|---------|----------|---------|---------|---------|---------|
|---------|*---------|---------|---------|---------|---------|
|-R-R-R-R-|*-0-0-5---|---0-0-0-|-5-----0-|-0-0-5---|---0-0-0-|
|---------|--------3-|-3-------|---3-3---|-------3-|-3-------|
  1 2 3 4    1 2 3 4   1 2 3 4   1 2 3 4   1 2 3 4   1 2 3 4  
|---------|----------|
|---------|---------*|
|-0-0-0-0-|-0-0-0-0-*|(x2)
|---------|----------|
  1 2 3 4   1 2 3 4

Rest(1 bar)
Chorus(x1)
Rest(1 bar)
Verse
Chorus
Intro(x2)
Verse
Yeah Part(x2)
Chorus
Rest(1 bar)
Chorus(x1)


Submitted by:  Jo Taylor (*)

Clipes

Cifra Club Pro

Aproveite o Cifra Club com benefícios exclusivos e sem anúncios
7 dias grátis
Cifra Club Pro
Aproveite o Cifra Club com benefícios exclusivos e sem anúncios
7 dias grátis