busca

Same old story

Pennywise

Tom: B
. = palm muted
/ = slide up
p = pull off
h = hammer on
~ = let ring
b = bend
br = bend and release
  
intro: 
e-|-----------------------------------------------------------------
B-|-----------------------------------------------------------------
G-|-2-2-2-2-5-5-5-5-----------------2-2-2-2-5-5-5-5---------9-9-9-9-
D-|-2-2-2-2-5-5-5-5-3-3-3-3-5-5-5-5-2-2-2-2-5-5-5-5-3-3-3-3-9-9-9-9- 
A-|-0-0-0-0-3-3-3-3-3-3-3-3-5-5-5-5-0-0-0-0-3-3-3-3-3-3-3-3-7-7-7-7-
E-|-----------------1-1-1-1-3-3-3-3-----------------1-1-1-1---------

 -------------------------------------------------|
 -------------------------------------------------|
 -2-2-2-2-5-5-5-5---------------------------------|
 -2-2-2-2-5-5-5-5-3-3-3-3-5-5-5-5-3-3-3-3-2-2-2-2-|  (1x)
 -0-0-0-0-3-3-3-3-3-3-3-3-5-5-5-5-3-3-3-3-2-2-2-2-|
 -----------------1-1-1-1-3-3-3-3-1-1-1-1-0-0-0-0-|
                                    ......
verse: 
e-|---------------------------------------------------------|
B-|---------------------------------------------------------|
G-|-2-2-2-5-5-5-------------2-2-2-5-5-5-------9-9-9---------|
D-|-2-2-2-5-5-5-3-3-3-5-5-5-2-2-2-5-5-5-3-3-3-9-9-9---------| 
A-|-0-0-0-3-3-3-3-3-3-5-5-5-0-0-0-3-3-3-3-3-3-7-7-7---------|
E-|-------------1-1-1-3-3-3-------------1-1-1---------------|
    . .   . .   . .   . .   . .   . .   . .   . .
 -----------------------------------------|
 -----------------------------------------|
 -2-2-2-5-5-5-----------------------------|
 -2-2-2-5-5-5-3-3-3-5-5-5-3-3-3-3-2-2-2-2-|  (2x)
 -0-0-0-3-3-3-3-3-3-5-5-5-3-3-3-3-2-2-2-2-|
 -------------1-1-1-3-3-3-1-1-1-1-0-0-0-0-| 
  . .   . .   . .   . .     

chorus:
e-|-------------------------------------------------
B-|-------------------------------------------------
G-|-2-2-2-2-2-2-5-5-5-5-5-5-7-7-7-7-7-7-2-2-2-2-2-2-
D-|-2-2-2-2-2-2-5-5-5-5-5-5-7-7-7-7-7-7-2-2-2-2-2-2-   (4x)
A-|-0-0-0-0-0-0-3-3-3-3-3-3-5-5-5-5-5-5-0-0-0-0-0-0-  
E-|-------------------------------------------------
                                        |---PM-----|  (Palm multe on 2 and 4)
intro: 
e-|-----------------------------------------------------------------
B-|-----------------------------------------------------------------
G-|-2-2-2-2-5-5-5-5-----------------2-2-2-2-5-5-5-5---------9-9-9-9-
D-|-2-2-2-2-5-5-5-5-3-3-3-3-5-5-5-5-2-2-2-2-5-5-5-5-3-3-3-3-9-9-9-9- 
A-|-0-0-0-0-3-3-3-3-3-3-3-3-5-5-5-5-0-0-0-0-3-3-3-3-3-3-3-3-7-7-7-7-
E-|-----------------1-1-1-1-3-3-3-3-----------------1-1-1-1---------

 -------------------------------------------------|
 -------------------------------------------------|
 -2-2-2-2-5-5-5-5---------------------------------|
 -2-2-2-2-5-5-5-5-3-3-3-3-5-5-5-5-3-3-3-3-2-2-2-2-|  (1x)
 -0-0-0-0-3-3-3-3-3-3-3-3-5-5-5-5-3-3-3-3-2-2-2-2-|
 -----------------1-1-1-1-3-3-3-3-1-1-1-1-0-0-0-0-|
                                    ......
verse: 
e-|---------------------------------------------------------|
B-|---------------------------------------------------------|
G-|-2-2-2-5-5-5-------------2-2-2-5-5-5-------9-9-9---------|
D-|-2-2-2-5-5-5-3-3-3-5-5-5-2-2-2-5-5-5-3-3-3-9-9-9---------| 
A-|-0-0-0-3-3-3-3-3-3-5-5-5-0-0-0-3-3-3-3-3-3-7-7-7---------|
E-|-------------1-1-1-3-3-3-------------1-1-1---------------|
    . .   . .   . .   . .   . .   . .   . .   . .
 -----------------------------------------|
 -----------------------------------------|
 -2-2-2-5-5-5-----------------------------|
 -2-2-2-5-5-5-3-3-3-5-5-5-3-3-3-3-2-2-2-2-|  (2x)
 -0-0-0-3-3-3-3-3-3-5-5-5-3-3-3-3-2-2-2-2-|
 -------------1-1-1-3-3-3-1-1-1-1-0-0-0-0-| 
  . .   . .   . .   . .     

chorus:
e-|-------------------------------------------------
B-|-------------------------------------------------                                    PICKSCRAP  
G-|-2-2-2-2-2-2-5-5-5-5-5-5-7-7-7-7-7-7-2-2-2-2-2-2-                                    /////////
D-|-2-2-2-2-2-2-5-5-5-5-5-5-7-7-7-7-7-7-2-2-2-2-2-2-
A-|-0-0-0-0-0-0-3-3-3-3-3-3-5-5-5-5-5-5-0-0-0-0-0-0-  (4x)
E-|-------------------------------------------------
                                        |---PM-----| (Palm multe on 2 and 4 
                                                     Then pickscrape after 4x) 
bridge:
e-|----------------------------------|
B-|----------------------------------|
G-|-5-5-5-5-5-5-5-5------------------|
D-|-5-5-5-5-5-5-5-5-7-7-7-7-7-7-7-7--|   (3x)
A-|-3-3-3-3-3-3-3-3-7-7-7-7-7-7-7-7--|
E-|-----------------5-5-5-5-5-5-5-5--|

e-|---------------------------------------------------------|
B-|---------------------------------------------------------|
G-|-5-5-5-5-7-7-7-7-----------------5-5-5-5-7-7-7-7-9-99-999|
D-|-5-5-5-5-7-7-7-7-7-7-7-7-7-7-7-7-5-5-5-5-7-7-7-7-9-99-999|
A-|-3-3-3-3-5-5-5-5-7-7-7-7-7-7-7-7-3-3-3-3-5-5-5-5-7-77-777|
E-|-----------------5-5-5-5-5-5-5-5-------------------------|

solo:
E-|-4/5-5-5-5-5-5-5-5-4/5-5-4/5-5-4/5--5p8-----------------------------------------5~-3~----|
B-|-4/5-5-5-5-5-5-5-5-4/5-5-4/5-5-4/5-5---5-5-5--5--------------------------------------3-5-|
G-|-----------------------------------------------7br-5-------------5---5-7br-5-------------|
D-|-----------------------------------------------------7---5h7-7-7---7---------7-----------|
A-|-----------------------------------------------------------------------------------------|
E-|-----------------------------------------------------------------------------------------|

chorus:
e-|-------------------------------------------------
B-|-------------------------------------------------
G-|-2-2-2-2-2-2-5-5-5-5-5-5-7-7-7-7-7-7-2-2-2-2-2-2-
D-|-2-2-2-2-2-2-5-5-5-5-5-5-7-7-7-7-7-7-2-2-2-2-2-2-  (4x)
A-|-0-0-0-0-0-0-3-3-3-3-3-3-5-5-5-5-5-5-0-0-0-0-0-0- 
E-|-------------------------------------------------

end on:  D-|-7
         A-|-7
         E-|-5
                                       

Clipes

Cifra Club Pro

Aproveite o Cifra Club com benefícios exclusivos e sem anúncios
7 dias grátis
Cifra Club Pro
Aproveite o Cifra Club com benefícios exclusivos e sem anúncios
7 dias grátis