busca

Searching

Pennywise

Tom: G
(opening)
E |-|-----|
B |-|-----|
G |-|-----|
D |-|--9--|
A |-|--9--|
E |-|--7--|

   (verse)
E |-|-------------------------------------|
B |-|-------------------------------------|
G |-|-------------------------------------|
D |-|-9-9-9-9-9-11/12-11-7-7-7-7-7-12/14--|
A |-|-9-9-9-9-9-11/12-11-7-7-7-7-7-12/14--|
E |-|-7-7-7-7-7--9/10--9-5-5-5-5-5-10/12--|

   (verse break)
E |-|------------------------------------|
B |-|------------------------------------|
G |-|------------------------------------|
D |-|-9-9-9-9-12-12-12-12-14-14-14-14-14-|
A |-|-9-9-9-9-12-12-12-12-14-14-14-14-14-|
E |-|-7-7-7-7-10-10-10-10-12-12-12-12-12-|

   (chorus i)
E |-|---------------------------------|
B |-|---------------------------------|
G |-|---------------------------------|
D |-|-9-9-9\7-7/12-12-12-12-12-12-12--|
A |-|-9-9-9\7-7/12-12-12-12-12-12-12--|
E |-|-7-7-7\5-5/10-10-10-10-10-10-10--|

   (chorus ii)
E |-|---------------------------|
B |-|---------------------------|
G |-|---------------------------|
D |-|-9-9-9\7-7--7-7-7-7-7-7-7--|
A |-|-9-9-9\7-7--7-7-7-7-7-7-7--|
E |-|-7-7-7\5-5--5-5-5-5-5-5-5--|

   (chorus iii)
E |-|------------------------|
B |-|------------------------|
G |-|-9-9-x-x-x-9-9-9-9-9-9--|
D |-|-9-9-x-x-x-9-9-9-9-9-9--|
A |-|-7-7-x-x-x-7-7-7-7-7-7--|
E |-|------------------------|

(or the chorus, play in this order:=)

(chorus i)                        (chorus ii)
Tonight i will rage               against the forces of fate

(chorus i)                        (chorus iii)
The tide is turning my way        i'm not gonna fade away. . .

(verse)
...slowly

(interlude) ("if you wanna try this disposition...")
E |-|--------------------------------------------------|
B |-|--------------------------------------------------|
G |-|--------------------------------------------------|
D |-|-9-9--9-9-9-12-12--12-12-12-2-2--2-2-2-5-5--5-5-5-|
A |-|-9-9--9-9-9-12-12--12-12-12-2-2--2-2-2-5-5--5-5-5-|
E |-|-7-7--7-7-7-10-10--10-10-10-0-0--0-0-0-3-3--3-3-3-|

(play this instead of the G the
   second time you play the interlude)
E |-|------------|
B |-|------------|
G |-|-2-----4----|
D |-|-2--4--4--4-|
A |-|-0--4--2--4-|
E |-|----2-----2-|

Clipes