busca

Society

Pennywise

Tom: C
intro:
e|---------------|---------------------------------------------------------
B|---------------|---------------------------------------------------------
G|-12------------|---------------------------------------------------------
D|---12------12^-|-------9-9-9-------5-5-5-------9-9-9-12-12-12-------12---
A|-----10----10^-|-x-x-x-7-7-7-x-x-x-3-3-3-x-x-x-7-7-7-10-10-10-12-12-10---
E|-------10------|-x-x-x--------x-x-x-------x-x-x------------------10-10---

e|-------------------------------------------------------|
B|-------------------------------------------------------|
G|-------------------------------------------------------|
D|-------9-9-9-------5-5-5-------9-9-9-12-12-12-------12-|
A|-x-x-x-7-7-7-x-x-x-3-3-3-x-x-x-7-7-7-10-10-10-12-12-10-|
E|-x-x-x-------x-x-x-------x-x-x----------------10-10----|

e|-------------------------------------------------------------------------
B|-------------------------------------------------------------------------
G|-------------------------------------------------------------------------
D|---------9-9-9-9-5-5-5-5-----5-5--------9-9-9-9-12-12-12-12-------12----
A|-7-7-7-7-7-7-7-7-3-3-3-3-5-5-3-3--7-7-7-7-7-7-7-10-10-10-10-12-12-10----
E|-5-5-5-5-----------------3-3------5-5-5-5-------------------10-10-------

Chorus:
e|-------------------------------------------------------------------------
B|-------------------------------------------------------------------------
G|-------------------------------------------------------------------------
D|-----------------5-5-5-5-5-5-5-5-----------------7-7-7-7-7-7-7-7---------
A|-7-7-7-7-7-7-7-7-3-3-3-3-3-3-3-3-5-5-5-5-5-5-5-5-5-5-5-5-5-5-5-5-7-7-7-7-
E|-5-5-5-5-5-5-5-5-----------------3-3-3-3-3-3-3-3-----------------5-5-5-5-

e|---------------------------------------------------------|
B|---------------------------------------------------------|
G|---------------------------------------------------------|
D|---------5-5-5-5-5-5-5-5-7-7-7-7-7-7-7-7-7-7-7-7-7-7-5-5-|
A|-7-7-7-7-3-3-3-3-3-3-3-3-5-5-5-5-5-5-5-5-5-5-5-5-5-5-3-3-|
E|-5-5-5-5-------------------------------------------------|

====================================




Society

Society, We all know there's something wrong and we know it all along
Sincerity, You may think there's no one else till they put you on a shelf 
Society, Pay your taxes stand in line help them plan for your demise 
Society, Crush the weak to get your share cause nobody's playing fair 

And no one cares
How long you pray makes no difference today
When your society devices how you'll pay
When finding the truth makes no difference to you
Anyway you look at it you're gone get screwed
You loose

Society, No one here can get along cause our history's to long 
Sincerity, Think you're going with the flow but you never really know
Society, To all the leaders it's a game and it's making you insane 
Society, Data patterns are supplied proof tap back up all the lies 
We're hardly alive. 

Clipes