busca

Something To Change

Pennywise

Tom: G
INTRO

e|------------------------------------------------------------------|            
B|------------------------------------------------------------------|           
G|------------------------------------------------------------------| 
D|--2-2--------------5-5--------------2-2--------------5-5---7-5-2--| x2          
A|--2-2-----3-2-0-2--5-5-----5-3-2-3--2-2-----3-2-0-2--5-5---7-5-2--|            
E|--0-0---0----------3-3---3----------0-0---0----------3-3---5-3-0--|   

Verso

e|---------------------------------------------------|
B|---------------------------------------------------|
G|-------5-----------7-----------5-------------------|
D|-2-----5-----5-----7-----2-----5-----5-----7-5-2---| x2
A|-2-----3...--5-----5...--2-----3...--5-----7-5-2---|
E|-0...--------3...--------0...--------3...--5-3-0---|

e|---------------------------------------------------|---------|
B|---------------------------------------------------|---------|
G|-meio-----------5-----------7-----------5----------|---------|
D|-abafado--2-----5-----5-----7-----2-----5-----5----|--7-5-2--| 
A|----------2-----3...--5-----5...--2-----3...--5----|--7-5-2--|
E|----------0...--------3...--------0...--------3...-|--5-3-0--|

e|------------------------------------------------------------------------------------|
B|------------------------------------------------------------------------------------|
G|-------5-----------7-----------5----------------------------------------------------|
D|-2-----5-----5-----7-----2-----5-----5-----7-5--9---10----12-10-9---10...-12-10-----|
A|-2-----3...--5-----5...--2-----3...--5-----7-5--9---10----12-10-9---10...-12-10-----|
E|-0...--------3...--------0...--------3...--5-3--7...-8...-10--8-7...-8...-10--8-----|

Refrão

e|---------------------------------------------------|
B|---------------------------------------------------|
G|-------5-----------7-----------5-------------------|
D|-2-----5-----5-----7-----2-----5-----5-----7-5-2---| x2
A|-2-----3...--5-----5...--2-----3...--5-----7-5-2---|
E|-0...--------3...--------0...--------3...--5-3-0---|

Repete Intro

Verso

Refrão

Solinho/Riff

e|----------------------------------------|-------------------------------------------|
B|----------------------------------------|-------------------------------------------|
G|----------------------------------------|-7-9--7-9--7--11-12--11-12--11--1212-11-12-|
D|-0-2-0-2-0--0-2-0-4-5-0-2-0-2-0---------|-x-x--x-x--x---x--x---x--x---x---x-x--x--x-|
A|--------------------------------2-3-2---|-5/7--5/7--5---9/10---9/10---9--1010--9-10-|
E|--------------------------------------3-|-------------------------------------------|

e|---------------------------------|--------------------------------------|
B|---------------------------------|--------------------------------------|
G|-14-12-11--12---11----12----9----|-44-55-77-99--12-11-12--1414-12-11-12-|
D|--x--x--x---x----x-----x----x----|-xx-xx-xx-xx---x--x--x---x-x--x--x--x-| 
A|-12-10--9--10...-9...-10...-7...-|-22/33/55/77--10--9-10--1212-10--9-10-|
E|---------------------------------|--------------------------------------|

e depois a guitarra faz:

e|-----------------------------------------------------------|
B|-----------------------------------------------------------|
G|----------------5-----------7-----------5------------------|
D|-abafado--2-----5-----5-----7-----2-----5-----5-----7-5-2--| x2
A|----------2-----3...--5-----5...--2-----3...--5-----7-5-2--|
E|----------0...--------3...--------0...--------3...--5-3-0--|

Refrão

Clipes

Cifra Club Pro

Aproveite o Cifra Club com benefícios exclusivos e sem anúncios
Cifra Club Pro
Aproveite o Cifra Club com benefícios exclusivos e sem anúncios