busca

Something To Live For

Pennywise

Tom: D
(intro)

E |-----------------------------5----------|
B |-------------------------------5--------|
G |---------5-5/9-9-------14~-------5------|
D |-7~------x-x-x-x-7~----14~---------7----|
A |-7~------3-3/7-7-7~----12~--------------|
E |-5~--------------5~---------------------|

(verse)
E |-----------------------------------------------------------------|
B |-----------------------------------------------------------------|
G |-------------------------5-5-5-5-----------------7-7-7-7-9-9-9-9-|
D |-7-7-7-7-5-5-5-5-7-7-7-7-5-5-5-5-7-7-7-7-3-3-3-3-7-7-7-7-9-9-9-9-|
A |-7-7-7-7-5-5-5-5-7-7-7-7-3-3-3-3-7-7-7-7-3-3-3-3-5-5-5-5-7-7-7-7-|
E |-5-5-5-5-3-3-3-3-5-5-5-5---------5-5-5-5-1-1-1-1-----------------|

(pre-chorus)
E |------------------------------------------------------------------|
B |------------------------------------------------------------------|
G |-----------------1010101010101010---------------------------------|
D |-7-7-7-7-7-7-7-7-1010101010101010-7-7-7-7-7-7-7-7-2-2-2-2-2-2-2-2-|
A |-7-7-7-7-7-7-7-7-8-8-8-8-8-8-8-8--7-7-7-7-7-7-7-7-2-2-2-2-2-2-2-2-|
E |-5-5-5-5-5-5-5-5------------------5-5-5-5-5-5-5-5-0-0-0-0-0-0-0-0-|

E |------------------------------------------------------------------|
B |------------------------------------------------------------------|
G |-----------------1010101010101010-5-5-5-5-5-5-5-7-----------------|
D |-7-7-7-7-7-7-7-7-1010101010101010-5-5-5-5-5-5-5-7-5-5-5-5-5-5-5-5-|
A |-7-7-7-7-7-7-7-7-8-8-8-8-8-8-8-8--3-3-3-3-3-3-3-5-5-5-5-5-5-5-5-5-|
E |-5-5-5-5-5-5-5-5----------------------------------3-3-3-3-3-3-3-3-|

(chorus)
E |------------------------------------------------------------------|
B |------------------------------------------------------------------|
G |-----------------1010101010101010-5-5-5-5-5-5-5-5-----------------|
D |-7-7-7-7-7-7-7-7-1010101010101010-5-5-5-5-5-5-5-5-5-5-5-5-5-5-5-5-|
A |-7-7-7-7-7-7-7-7-8-8-8-8-8-8-8-8--3-3-3-3-3-3-3-3-5-5-5-5-5-5-5-5-|
E |-5-5-5-5-5-5-5-5----------------------------------3-3-3-3-3-3-3-3-|
(play this one 3 times in the last chorus)

E |------------------------------------------------------------------|
B |------------------------------------------------------------------|
G |-----------------1010101010101010-5-5-5-5---------2-2-2-2---------|
D |-7-7-7-7-7-7-7-7-1010101010101010-5-5-5-5-5-5-5-5-2-2-2-2-2-2-2-2-|
A |-7-7-7-7-7-7-7-7-8-8-8-8-8-8-8-8--3-3-3-3-5-5-5-5-0-0-0-0-2-2-2-2-|
E |-5-5-5-5-5-5-5-5--------------------------3-3-3-3---------0-0-0-0-|

(interlude thing)
E |------------------------------------------------------------------|
B |------------------------------------------------------------------|
G |-14-14-14-14-12-9--12-12-12-12-9-5--14-14-14-14-12-9--12~---13~---|
D |--x--x--x--x--x-x---x--x--x--x-x-x---x--x--x--x--x-x---x-----x----|
A |-12-12-12-12-10-7--10-10-10-10-7-3--12-12-12-12-10-7--10~---11~---|
E |------------------------------------------------------------------|
(play verse chords under this)

(bridge)
(play last 8 bars of intro)

(solo) (with wah wah)
E |-------------------------------------------------------------------------|
B |-10-1010-10-10-10-1010-10-10-------------------8-8---8-10p8h10p810p8-8---|
G |---------------------------------------------9-----9-------------------9-|
D |-----------------------------7-9-10-9------7-----------------------------|
A |--------------------------------------10---------------------------------|
E |-------------------------------------------------------------------------|

E |----------------------------------12-12-15-12-15p12-12-15p12-12-12-------|
B |-------------------8-8---8--10-13----------------------------------------|
G |--------7--------9-----9-------------------------------------------------|
D |-7-9-10---10-9-----------------------------------------------------------|
A |---------------7---------------------------------------------------------|
E |-------------------------------------------------------------------------|
(play the verse chords under the solo)

(end on A5 )

Clipes

Cifra Club Pro

Aproveite o Cifra Club com benefícios exclusivos e sem anúncios
7 dias grátis
Cifra Club Pro
Aproveite o Cifra Club com benefícios exclusivos e sem anúncios
7 dias grátis