busca

Stand Up

Pennywise

Tom: C
(intro)
E |------------------------------------------------------|--------------|
B |------------------------------------------------------|--------------|
G |-------------7-7-7------------7-7-7------------7-7-7--|-99--9--9--9--|
D |--2255775522-7-7-7-2255775522-7-7-7-2255775522-7-7-7--|-99--9--9--9--|
A |--2255775522-5-5-5-2255775522-5-5-5-2255775522-5-5-5--|-77--7--7--7--|
E |--0033553300-------0033553300-------0033553300--------|--------------|
    **********       **********       **********

E |------------------------------------------------------|--------------|
B |------------------------------------------------------|--------------|
G |---------------7-7--------------7-7--------------7-7--|-99--9--9--9--|
D |--225577552222-7-7-225577552222-7-7-225577552222-7-7--|-99--9--9--9--|
A |--225577552222-5-5-225577552222-5-5-225577552222-5-5--|-77--7--7--7--|
E |--003355330000-----003355330000-----003355330000------|--------------|
    ************     ************     ************

E |-------------------------------|
B |-------------------------------|
G |-------------------------------|
D |--2-2-2222-4444-5555--(7)-10\--|
A |--2-2---------------------10\--|
E |--0-0----------------------8\--|

(verse)
E |---------------------------------------------------|
B |---------------------------------------------------|
G |------------------------------55-x-----7-77-x-5-7--|
D |--22222222-22222222-22222222--55-x-9-x-7-77-x-5-7--|
A |--22222222-22222222-22222222--33-x-9-x-5-55-x-3-5--|
E |--00000000-00000000-00000000-------7-x-------------|
    ******** ******** ********

(pre-chorus)
E |-----------------------------------------------------------------------|
B |-----------------------------------------------------------------------|
G |---------------------------7-5-5------------------55-x-----7-77-x-5-7--|
D |--22222222-5-7-7--22222222-7-5-5--22222222-5-7-7--55-x-9-x-7-77-x-5-7--|
A |--22222222-5-7-7--22222222-5-3-3--22222222-5-7-7--33-x-9-x-5-55-x-3-5--|
E |--00000000-3-5-5--00000000--------00000000-3-5-5-------7-x-------------|
    ********        ********        ********

(chorus)
E |--------------------------------------|----------------------------------|
B |--------------------------------------|----------------------------------|
G |--------------------------------------|----------------------------------|
D |--22222222-55555555-77777777-22222222-|-22222222-55555555-77-77----------|
A |--22222222-55555555-77777777-22222222-|-22222222-55555555-77-77-2575257\-|
E |--00000000-33333333-55555555-00000000-|-00000000-33333333-55-55-0353035\-|
                                                                 *******
      (1:11)stand up......today.........last chance
E |-----------------------------------------------------------------------|
B |-----------------------------------------------------------------------|
G |--------------------------------------------------55-x-----7-77-x-5-7--|
D |--222222/-------222222/-------222222/-------------55-x-9-x-7-77-x-5-7--|
A |--222222/777777-222222/999999-222222/101010101010-33-x-9-x-5-55-x-3-5--|
E |--000000/-------000000/-------000000/------------------7-x-------------|

E |-------------------------------------------------------|
B |-------------------------------------------------------|
G |-------------------------------------------------------|
D |-------------------------------------------------------|
A |--7777-9999-10101010-12121212121212121212121212121212--|
E |-------------------------------------------------------|

(verse)
(pre-chorus)
(chorus)

E |--------------------------------------------------------------------|
B |--------------------------------------------------------------------|
G |-9-999999-9999-999----------------------------------------9999-999--|
D |-9-999999-9999-999-5-555555-5x5x5-7-777777-7x7x5-2-222222-9999-999--|
A |-7-777777-7777-777-5-555555-5x5x5-7-777777-7x7x5-2-222222-7777-777--|
E |-------------------3-333333-3x3x3-5-555555-5x5x3-0-000000-----------|
     ******            ******         ******         ******

E |-----------------------------------------------------------------|
B |-----------------------------------------------------------------|
G |-9-999999-9x9x9-------------------------------99999999999999999--|
D |-9-999999-9x9x9-5-555555-5x5x5-7-777777-7x7x7-99999999999999999--|
A |-7-777777-7x7x7-5-555555-5x5x5-7-777777-7x7x7-77777777777777777--|
E |----------------3-333333-3x3x3-5-555555-5x5x5--------------------|
     ******         ******         ******

(chorus - there are some variations, but still the same chords)

(ends on this)
E |-----------|
B |-----------|
G |-----------|
D |--5--7--2--|
A |--5--7--2--|
E |--3--5--0--|

Clipes

Cifra Club Pro

Aproveite o Cifra Club com benefícios exclusivos e sem anúncios
7 dias grátis
Cifra Club Pro
Aproveite o Cifra Club com benefícios exclusivos e sem anúncios
7 dias grátis