busca

The World

Pennywise

Tom: F#
INTRO
|------------------------------------------------------|-----------------------
|------------------------------------------------------|-----------------------
|------------------------------------------------------|-----------------------
|----11-11-x-x-x-11-11-x-x-x-12--12-x-x-x-14-12--------|--11-11-11--14-12-11-
|-----9-9-x-x-x--9--9-x-x-x--10--10-x-x-x-12-10--------|--9--9--9---12-10-9--
|------------------------------------------------------|-----------------------

VERÇO
|--------------------------------------------|--------------------------------|
|--------------------------------------------|--------------------------------|
|--------------------------------------------|--------------------------------|
|--7-7-7-7-7-7-7-7-7-7-8-8-8-10-10-10--------|-11-x-x-x-11-x-x-x-11-x-x-x-11--|
|--7-7-7-7-7-7-7-7-7-7-8-8-8-10-10-10--------|--9-x-x-x--9-x-x-x-9--x-x-x--9--|
|--5-5-5-5-5-5-5-5-5-5-6-6-6--8--8--8--------|---------------------------------|

CHORUS "The world is a smoking gun......"                   "goin to have a 
day"
|--------------------------------------------|----------|
|--------------------------------------------|----------|
|--------------------------------------------|----------|
|--7--7--7--7--7--8--8--8--10--10--10--------|----------|
|--7--7--7--7--7--8--8--8--10--10--10--------|--10-8-7--|
|--5--5--5--5--5--6--6--6--8---8----8--------|---8-6-5--|

|------------------------------------------------------|-----------------------
|------------------------------------------------------|----------------------
|------------------------------------------------------|----------------------
|--11-11-x-x-x-11-11-x-x-x-12--12-x-x-x-14-12----------|---11-11-11--14-12-11-
|---9--9-x-x-x--9--9-x-x-x-10--10-x-x-x-12-10----------|----9--9--9--12-10--9-
|------------------------------------------------------|-----------------------


SOLO
|------------------------------------|---------------------------|
|------------------------------------|---------------------------|
|------------------------------------|---------------------------|
|------------------------------------|--13/14\13/14\13/14/17b--|
|--9-9-9-9-9-9-12-12-12-14-14-14-----|---------------------------|
|------------------------------------|---------------------------|

VERÇO

Clipes

Cifra Club Pro

Aproveite o Cifra Club com benefícios exclusivos e sem anúncios
7 dias grátis
Cifra Club Pro
Aproveite o Cifra Club com benefícios exclusivos e sem anúncios
7 dias grátis