busca

Time marches on

Pennywise

Tom: G#
 INTRO
E-|------------------------------|-------------------------|
B-|------------------------------|-------------------------|
G-|------------------------------|-------------------------|
D-|-8--10-10-8--10-10----6-6-----|-------------------------|
A-|-6--8--8--6--8--8--x--4-4-6-6-|-8-8-8-8-10-10-10-10-----|
E-|--------------------------4-4-|-6-6-6-6-8--8--8--8------|
VERSE
E-|----------------|---------------------------------------|
B-|----------------|---------------------------------------|
G-|----------------|---------------------------------------|
D-|-10-8-10--6---8-|--10-8-10-6-6-8-8----------------------|
A-|-8--6-8---4-6-6-|--8--6-8--4-4-6-6----------------------|
E-|------------4---|---------------------------------------|
CHORUS
E-|---------------------|---------------------|-----------------------------------------|
B-|---------------------|---------------------|-----------------------------------------|
G-|---------------------|---------------------|-----------------------------------------|
D-|10-10-10-10-10-10-6--|10-10-10-10-10-10-6-8|10-10-10-10-10-10-6---8-8-8-8-10-10-10-10|
A-|8--8--8--8--8--8--4-6|8--8--8--8--8--8--4-6|8--8--8--8--8--8--4-6-6-6-6-6-8--8--8--8-|
E-|--------------------4|---------------------|--------------------4--------------------|

Clipes