busca

Waiting

Pennywise

Tom: G
Intro:

Guitarra 1

e|----------------------------------------------|
B|----------------------------------------------|
G|---------------12-----------------------------|
D|-9999999999999-12-12121212121212121212121212--|
A|-9999999999999-10-12121212121212121212121212--|
E|-7777777777777----10101010101010101010101010--|

e|----------------------------------------------|
B|----------------------------------------------|
G|-9---------------9----------------9-----------|
D|-9-9999999999999-9-77777777777777-9-----------|
A|-7-9999999999999-7-77777777777777-7-----------|
E|---7777777777777---55555555555555-------------|

Guitarra 2

e|--10-12-14-12-10--10-12-14-15--10-12-14-12-10---|
B|12--------------12-----------12--------------12-|
G|------------------------------------------------|
D|------------------------------------------------|
A|------------------------------------------------|
E|------------------------------------------------|

Verso:

Guitarras 1 e 2

e|----------------------------------------------|
B|----------------------------------------------|
G|---------------12-----------------------------|
D|-9999999999999-12-12121212121212121212121212--|
A|-9999999999999-10-12121212121212121212121212--|
E|-7777777777777----10101010101010101010101010--|
  abafado........  ...........................
e|----------------------------------------------|
B|----------------------------------------------|
G|-9---------------9----------------------------|
D|-9-9999999999999-9-77777777777777-------------|2x
A|-7-9999999999999-7-77777777777777-------------|
E|---7777777777777---55555555555555-------------|
     ..............  ................
e|--------------------------------|
B|--------------------------------|
G|----------1414141414141414------|
D|-77777777-1414141414141414------|
A|-77777777-1212121212121212------|
E|-55555555-----------------------|

Refrão:

Guitarras 1 e 2

e|-------------------------------------------------|
B|-------------------------------------------------|
G|-------------------------------------------------|
D|-999999999999999-121212121212121212-7777777777777|
A|-999999999999999-121212121212121212-7777777777777|
E|-777777777777777-101010101010101010-5555555555555|

e|----------------|-----------------------|
B|----------------|-----------------------|
G|----------------|-----------------------|
D|-55-7-5-7-------|-555-555555-555-555555-|
A|-55-7-5-7-------|-555-555555-555-555555-|
E|-33-5-3-5-------|-333-333333-333-333333-|
  1a vez           2a vez

Bridge:

Guitarra 1

e|-------------------------------------------------|
B|-------------------------------------------------|
G|-------------------------------------------------|
D|-99999999999999-1212121212121212-777777777777777-|
A|-99999999999999-1212121212121212-777777777777777-|
E|-77777777777777-1010101010101010-555555555555555-|

e|-------------------------------|
B|-------------------------------|
G|-------------------------------|
D|-555555555555555---------------|
A|-555555555555555---------------|
E|-333333333333333---------------|

Guitarra 2

e|-----------------------------------------------|
B|-----------------------------------------------|
G|----------------11-----------------------------|
D|-9-9-12-9-12--12--12--9-9-12-9----------9------|
A|--9---------12------------------12-10-12-12-10-|
E|-----------------------------------------------|

e|-----------------------------------------------|
B|-----------------------------------------------|
G|----------------11-----------------------------|
D|-9-9-12-9-12--12--12--9-9-12-9---------9-------|
A|--9---------12----------------12-10-12--12-10-9|
E|-----------------------------------------------|

e|--------------------------|
B|--------------------------|
G|--------------------------|
D|------9--------9----------|
A|-10-12-12-10-12-----------|
E|--------------------------|

Clipes

Cifra Club Pro

Aproveite o Cifra Club com benefícios exclusivos e sem anúncios
7 dias grátis
Cifra Club Pro
Aproveite o Cifra Club com benefícios exclusivos e sem anúncios
7 dias grátis