busca

Waste Of Time

Pennywise

tabbed by carlos pino

    verse

G]---------------------------------------------------------------------------
D]---------------------------------------------------------------------------
A]-----4-4------------------4-4--------4------4-4------------3-3-3-3-3-3-3-3
E]-1-1----4-4--6-6--1-1-----4-4-6---1-1------4-4--6-6----------------------

    chorus                      

G]---------------------------------------------------------------------------
D]---------------------------------------------------------------------------
A]-------------4-4-------------8-4-6-6-------------8-4-6-4-4-4-3-3-------6-6-3-3
E]-1-1--6-6-------1-1-1-6-------------1-1-1-6------------------------1-1-------

    palm mute part

G]---------------------------------------------------------------------------
D]---------------------------------------------------------------------------
A]------------4-4-4-4------------------------------------4-4-4-4-----------6-6-6-6--3-3-3-3
E]-1-1-1-1------------4-4-4-4--6-6-6-6--1-1-1-1-----------4-4-4-4-----------------------

Clipes