busca

Western World

Pennywise

Tom: C
(intro riff)

E |--------------------------------------------------------------------------|
B |--------------------------------------------------------------------------|
G |--------------------------------------------------------------------------|
D |--7777-3333-5/77\5/7/9/10----7777-3333-5/77\5\3\222-----------------------|
A |--7777-3333------------------7777-3333----------000-----------------------|
E |--5555-1111-3/55\3/5/7/8-----5555-1111-3/55\3\1---------------------------|

E |--------------------------------------------------------------------------|
B |--------------------------------------------------------------------------|
G |--------------------------------------------------------------------------|
D |--7777-3333-5/77\5/7/9/10----7777-3333-2222222222222222-------------------|
A |--7777-3333------------------7777-3333-2222222222222222-------------------|
E |--5555-1111-3/55\3/5/7/8-----5555-1111-0000000000000000-------------------|


(verse riff) (2x palm muted, then 2x without)
E |--------------------------------------------------------------------------|
B |--------------------------------------------------------------------------|
G |--------------------------------------------------------------------------|
D |--7777777777777777-33333333-5555-7/10\9\5/7-------------------------------|
A |--7777777777777777-33333333-5555-7/10\9\5/7-------------------------------|
E |--5555555555555555-11111111-3333-5/8-\7\3/5-------------------------------|

(pick scratch)

(chorus riff 2x)
E |--------------------------------------------------------------------------|
B |--------------------------------------------------------------------------|
G |-----------555555555----------------7/9999--------------------------------|
D |--77777777-555555555-55555555-3333----------------------------------------|
A |--77777777-333333333-55555555-3333--5/7777--------------------------------|
E |--55555555-----------33333333-1111----------------------------------------|

Clipes

Cifra Club Pro

Aproveite o Cifra Club com benefícios exclusivos e sem anúncios
7 dias grátis
Cifra Club Pro
Aproveite o Cifra Club com benefícios exclusivos e sem anúncios
7 dias grátis