busca

Wouldn't It Be Nice

Pennywise

Tom: G#
e-|--------------|-------------------------------------|
B-|--------------|-------------------------------------|
G-|--------------|----------6-6-6-x-8-8-8-x------------|
D-|-8------------|--8-8-8-x-6-6-6-x-8-8-8-x-10-10-10-x-|
A-|-8-pick slide-|--8-8-8-x-4-4-4-x-6-6-6-x-10-10-10-x-|
E-|-6------------|--6-6-6-x------------------8--8--8-x-|
 
e-|-----------------------------------------------------------------------|
B-|-----------------------------------------------------------------------|
G-|---------6-6-6-x-8-8-8-x-10-10-10-x---------6-6-6-x-8-8-8-x------------|
D-|-8-8-8-x-6-6-6-x-8-8-8-x-10-10-10-x-8-8-8-x-6-6-6-x-8-8-8-x-10-10-10-x-|
A-|-8-8-8-x-4-4-4-x-6-6-6-x--8--8--8-x-8-8-8-x-4-4-4-x-6-6-6-x-10-10-10-x-|
E-|-6-6-6-x----------------------------6-6-6-x------------------8--8--8-x-|
 
e-|------------------------------------|
B-|------------------------------------|
G-|------------------x-8-8-8-8-8-8-8---|
D-|-x-6-6-6-6-6-6-6--x-8-8-8-8-8-8-8---|
A-|-x-6-6-6-6-6-6-6--x-6-6-6-6-6-6-6---|
E-|-x-4-4-4-4-4-4-4--------------------|
 
 do this once as the intro and continue to play it along with the verses...
 
chorus:
e-|-----------------------------------------------------------------
B-|-----------------------------------------------------------------
G-|-----------------6-6-6-6-6-6-6-6---------------------------------
D-|-8-8-8-8-8-8-8-8-6-6-6-6-6-6-6-6-6-6-6-6-6-6-6-6-8-8-8-8-8-8-8-8-
A-|-8-8-8-8-8-8-8-8-4-4-4-4-4-4-4-4-6-6-6-6-6-6-6-6-8-8-8-8-8-8-8-8-
E-|-6-6-6-6-6-6-6-6-----------------4-4-4-4-4-4-4-4-6-6-6-6-6-6-6-6-
 

e-|-----------------------------------------------------------------------
B-|-----------------------------------------------------------------------
G-|---------6-6-6-x-8-8-8-x--------------------6-6-6-x-8-8-8-x-10-10-10-x-
D-|-8-8-8-x-6-6-6-x-8-8-8-x-10-10-10-x-8-8-8-x-6-6-6-x-8-8-8-x-10-10-10-x-
A-|-8-8-8-x-4-4-4-x-6-6-6-x-10-10-10-x-8-8-8-x-4-4-4-x-6-6-6-x--8--8--8-x-
E-|-6-6-6-x------------------8--8--8-x-6-6-6-x----------------------------


e-|---------------------------------------------------------------------|
B-|---------------------------------------------------------------------|
G-|---------6-6-6-x-8-8-8-x----------------------------8-8-8-8-8-8-8-8--|
D-|-8-8-8-x-6-6-6-x-8-8-8-x-10-10-10-x-6-6-6-6-6-6-6-6-8-8-8-8-8-8-8-8--|
A-|-8-8-8-x-4-4-4-x-6-6-6-x-10-10-10-x-6-6-6-6-6-6-6-6-6-6-6-6-6-6-6-6--|
E-|-6-6-6-x------------------8--8--8-x-4-4-4-4-4-4-4-4------------------|


  solo...(I guess)
e-|--------------------------------------------------------------------------|
B-|--------------------------------------------11-9------------11-9----------|
G-|-------------------------------------------------8-8-10-8--------8-8-10-8-|
D-|-8-8888-8888-8888-8888-8888-8888-8888-8888----------------8--------------8|
A-|-8------------------------------------------------------------------------|
E-|-6------------------------------------------------------------------------|

Clipes