busca

Yell Out

Pennywise

Tom: C
(intro)
E |----------------------------------------------------------------|
B |----------------------------------------------------------------|
G |-8-------------------8--------------10-1010-8-------------------|
D |-8-10-101010-8-6-666-8-10-101010-88-10-1010-8-10-101010-8-6-666-|
A |-6-10-101010-8-6-666-6-10-101010-88--8--8-8-6-10-101010-8-6-666-|
E |----8--8-8-8-6-4-444----8--8-8-8-66------------8--8-8-8-6-4-444-|

E |------------------|
B |------------------|
G |------------------|
D |--------------3---|
A |-22-222-2-3-5---6-|
E |-00-000-0---------|
pm .. ... .

(pre-verse)
E |-----------------------------------------------------------------|
B |-----------------------------------------------------------------|
G |-8-------------------8--------------10-1010-8--------------------|
D |-8-10-101010-8-6-666-8-10-101010-88-10-1010-8-10-101010-8-6-666\-|
A |-6-10-101010-8-6-666-6-10-101010-88--8--8-8-6-10-101010-8-6-666\-|
E |----8--8-8-8-6-4-444----8--8-8-8-66------------8--8-8-8-6-4-444\-|

E |---------------------|
B |---------------------|
G |----------------8----|
D |-5-555555-6-6-8-8-10-|
A |-5-555555-6-6-8-6-10-|
E |-3-333333-4-4-6----8-|
pm   ......

(verse) \"shot down a million times..."\
E |----------------------------------------------------------------------|
B |----------------------------------------------------------------------|
G |---------8------8----------10-1010-10-1010-10-1010-10-----------------|
D |------10-8------8-8------8-10-1010-10-1010-10-1010-10-\\\pickslide\\\-|
A |------10-6------6-8------8--8--8-8--8--8-8--8--8-8--8-----------------|
E |-bass--8---bass---6-bass-6--------------------------------------------|

E |--------------------------------------------------------------------|
B |--------------------------------------------------------------------|
G |--------------------------------8-888888-8-88-888-------------------|
D |-10-101010101010-10-1010-101010-8-888888-8-88-888-8-888888-8-88-888-|
A |-10-101010101010-10-1010-101010-6-666666-6-66-666-8-888888-8-88-888-|
E |--8--8-8-8-8-8-8--8--8-8--8-8-8-------------------6-666666-6-66-666-|
pm    ............    ....          ......   ..       ......   ..

E |--------------------------------------------|
B |--------------------------------------------|
G |-10-1010-10-1010-10-1010-10-----------------|
D |-10-1010-10-1010-10-1010-10-\\\pickslide\\\-|
A |--8--8-8--8--8-8--8--8-8--8-----------------|
E |--------------------------------------------|

(pre-chorus) \"just need a reason why..."\
E |----------------------------------------------------|
B |----------------------------------------------------|
G |----------------------------------------1010-101010-|
D |-1010-10-88-6-1010-10-88-6-1010-10-88-6-1010-101010-|
A |-1010-10-88-6-1010-10-88-6-1010-10-88-6--8-8--8-8-8-|
E |--8-8--8-66-4--8-8--8-66-4--8-8--8-66-4-------------|

(chorus) \"yell out in defiance..."\ (here are octave chords in the back)
E |-----------------------------------------------|
B |-----------------------------------------------|
G |-------------88-888-----10-10------------------|
D |-1010-101010-88-888-8-8-10-10-1010-101010-1010-|
A |-1010-101010-66-666-8-8--8--8-1010-101010-1010-|
E |--8-8--8-8-8--------6-6--------8-8--8-8-8--8-8-|

E |-----------------------------------------------|
B |-----------------------------------------------|
G |-------------88-888-----10-10------------------|
D |-1010-101010-88-888-8-8-10-10-1010-101010-1010-|
A |-1010-101010-66-666-8-8--8--8-1010-101010-1010-|
E |--8-8--8-8-8--------6-6--------8-8--8-8-8--8-8-|

(after chorus) \"i did it once before..."\
E |-------------------------------------|
B |-------------------------------------|
G |-------------------------------------|
D |-6666-6-66-6-6-6-6-6-8888-8-88-8-8---|
A |-6666-6-66-6-6-6-6-6-8888-8-88-8-8---|
E |-4444-4-44-4-4-4-4-4-6666-6-66-6-6---|
pm ....   ..   .   .   ....   ..

(pre-verse) \"wohoho..."\
E |-------------------------------------------------------------------|
B |-------------------------------------------------------------------|
G |--------8-88-----------------8-88-----10-1010--------8-88----------|
D |-101010-8-88-666-8-88-101010-8-88-666-10-1010-101010-8-88-666-8-88-|
A |-101010-6-66-666-8-88-101010-6-66-666--8--8-8-101010-6-66-666-8-88-|
E |--8-8-8------444-6-66--8-8-8------444----------8-8-8------444-6-66-|

E |---------------------|
B |---------------------|
G |----------------8----|
D |-5-555555-6-6-8-8-10-|
A |-5-555555-6-6-8-6-10-|
E |-3-333333-4-4-6----8-|
pm   ......

(verse) \"blank stares from a million eyes"\
E |----------------------------------------------------------------------|
B |----------------------------------------------------------------------|
G |---------8------8----------10-1010-10-1010-10-1010-10-----------------|
D |------10-8------8-8------8-10-1010-10-1010-10-1010-10-\\\pickslide\\\-|
A |------10-6------6-8------8--8--8-8--8--8-8--8--8-8--8-----------------|
E |-bass--8---bass---6-bass-6--------------------------------------------|

E |--------------------------------------------------------------------|
B |--------------------------------------------------------------------|
G |--------------------------------8-888888-8-88-888-------------------|
D |-10-101010101010-10-1010-101010-8-888888-8-88-888-8-888888-8-88-888-|
A |-10-101010101010-10-1010-101010-6-666666-6-66-666-8-888888-8-88-888-|
E |--8--8-8-8-8-8-8--8--8-8--8-8-8-------------------6-666666-6-66-666-|
pm    ............    ....          ......   ..       ......   ..

E |--------------------------------------------|
B |--------------------------------------------|
G |-10-1010-10-1010-10-1010-10-----------------|
D |-10-1010-10-1010-10-1010-10-\\\pickslide\\\-|
A |--8--8-8--8--8-8--8--8-8--8-----------------|
E |--------------------------------------------|

(pre-chorus) \"just need a reason why..."\
E |----------------------------------------------------|
B |----------------------------------------------------|
G |----------------------------------------1010-101010-|
D |-1010-10-88-6-1010-10-88-6-1010-10-88-6-1010-101010-|
A |-1010-10-88-6-1010-10-88-6-1010-10-88-6--8-8--8-8-8-|
E |--8-8--8-66-4--8-8--8-66-4--8-8--8-66-4-------------|

(chorus) \"yell out in defiance..."\ (here are octave chords in the back)
E |-----------------------------------------------|
B |-----------------------------------------------|
G |-------------88-888-----10-10------------------|
D |-1010-101010-88-888-8-8-10-10-1010-101010-1010-|
A |-1010-101010-66-666-8-8--8--8-1010-101010-1010-|
E |--8-8--8-8-8--------6-6--------8-8--8-8-8--8-8-|

E |-----------------------------------------------|
B |-----------------------------------------------|
G |-------------88-888-----10-10------------------|
D |-1010-101010-88-888-8-8-10-10-1010-101010-1010-|
A |-1010-101010-66-666-8-8--8--8-1010-101010-1010-|
E |--8-8--8-8-8--------6-6--------8-8--8-8-8--8-8-|

(after chorus) \"i did it once before..."\
E |-------------------------------------|
B |-------------------------------------|
G |-------------------------------------|
D |-6666-6-66-6-6-6-6-6-8888-8-88-8-8---|
A |-6666-6-66-6-6-6-6-6-8888-8-88-8-8---|
E |-4444-4-44-4-4-4-4-4-6666-6-66-6-6---|
pm ....   ..   .   .   ....   ..

(bridge) \"wohoho..."\
E |-------------------------------------------------------------------|
B |-------------------------------------------------------------------|
G |--------8-88-----------------8-88-----10-1010--------8-88----------|
D |-101010-8-88-666-8-88-101010-8-88-666-10-1010-101010-8-88-666-8-88-|
A |-101010-6-66-666-8-88-101010-6-66-666--8--8-8-101010-6-66-666-8-88-|
E |--8-8-8------444-6-66--8-8-8------444----------8-8-8------444-6-66-|

E |-------------------|
B |-------------------|
G |----------------8--|
D |-5-555555-6-6-8-8--|
A |-5-555555-6-6-8-6--|
E |-3-333333-4-4-6----|
pm   ......

(interlude)
E |--------------------------------------------------------|
B |--------------------------------------------------------|
G |------------------------------101010-8-88-888------10---|
D |-10-1010-10-101010-10-1010-10-101010-8-88-888-8-88-10---|
A |-10-1010-10-101010-10-1010-10--8-8-8-6-66-666-8-88--8\\-|
E |--8--8-8--8--8-8-8--8--8-8--8-----------------6-66------|
pm    ....    ......    ....    ......   ..       ..

E |--------------------------------------------------------|
B |--------------------------------------------------------|
G |------------------------------101010-8-88-888-----------|
D |-10-1010-10-101010-10-1010-10-101010-8-88-888-5-55-5----|
A |-10-1010-10-101010-10-1010-10--8-8-8-6-66-666-5-55-5----|
E |--8--8-8--8--8-8-8--8--8-8--8-----------------3-33-3\\--|
pm    ....    ......    ....    ......   ..       ..

E |--------------------------------------------------------|
B |--------------------------------------------------------|
G |------------------------------101010-8-88-888------10---|
D |-10-1010-10-101010-10-1010-10-101010-8-88-888-8-88-10---|
A |-10-1010-10-101010-10-1010-10--8-8-8-6-66-666-8-88--8\\-|
E |--8--8-8--8--8-8-8--8--8-8--8-----------------6-66------|
pm    ....    ......    ....    ......   ..       ..

E |--------------------------------------------------------|
B |--------------------------------------------------------|
G |------------------------------101010-8-88-888-----10-8--|
D |-10-1010-10-101010-10-1010-10-101010-8-88-888-5---10-8--|
A |-10-1010-10-101010-10-1010-10--8-8-8-6-66-666-5----8-6--|
E |--8--8-8--8--8-8-8--8--8-8--8-----------------3---------|
pm    ....    ......    ....    ......   ..

(outro) \"wohoho..."\
E |-------------------------------------------------------------------|
B |-------------------------------------------------------------------|
G |--------8-88-----------------8-88-----10-1010--------8-88----------|
D |-101010-8-88-666-8-88-101010-8-88-666-10-1010-101010-8-88-666-8-88-|
A |-101010-6-66-666-8-88-101010-6-66-666--8--8-8-101010-6-66-666-8-88-|
E |--8-8-8------444-6-66--8-8-8------444----------8-8-8------444-6-66-|

E |-------------------|
B |-------------------|
G |----------------8--|
D |-5-555555-6-6-8-8--|
A |-5-555555-6-6-8-6--|
E |-3-333333-4-4-6----|

E |-------------------------------------------------------------------|
B |-------------------------------------------------------------------|
G |--------8-88-----------------8-88-----10-1010--------8-88----------|
D |-101010-8-88-666-8-88-101010-8-88-666-10-1010-101010-8-88-666-8-88-|
A |-101010-6-66-666-8-88-101010-6-66-666--8--8-8-101010-6-66-666-8-88-|
E |--8-8-8------444-6-66--8-8-8------444----------8-8-8------444-6-66-|

E |--------------------|
B |--------------------|
G |---------------8----|
D |-5555555-6-6-8-8-10-|
A |-5555555-6-6-8-6-10-|
E |-3333333-4-4-6----8-|
pm .......

Clipes

Cifra Club Pro

Aproveite o Cifra Club com benefícios exclusivos e sem anúncios
7 dias grátis
Cifra Club Pro
Aproveite o Cifra Club com benefícios exclusivos e sem anúncios
7 dias grátis