busca

Yesterdays

Pennywise

Tom: G
Intro & Bridge:

Guitarra 1

e|--------------------------------|
B|--------------------------------|
G|-------55555--------------------|
D|-22222-55555-55555-4444-5-4-----|
A|-22222-33333-55555-4444-5-4-----|
E|-00000-------33333-2222-3-2-----|

Guitarra 2

e|---------------7-7-8-7---------|
B|-8-7-8-10-8-10---------10-8-10-|
G|-------------------------------|
D|-------------------------------|
A|-------------------------------|
E|-------------------------------|

Verso:

Guitarras 1 e 2

e|----------------------------------|  |----------|
B|----------------------------------|  |----------|
G|----------------------------------|  |----------|
D|---------5555555------------------|  |-44444-5-4|
A|-2222222-3333333-5555555-4444-5-4-|  |-44444-5-4|
E|-0000000---------3333333-2222-3-2-|2x|-22222-3-2|
  abafado..........................

e|--------------------------------|
B|--------------------------------|
G|-------55555555-----------------|
D|-22222-55555555-55555-4444-5-4--|
A|-22222-33333333-55555-4444-5-4--|
E|-00000----------33333-2222-3-2--|


Refrão:

Guitarras 1 e 2

e|--------------------------|
B|--------------------------|
G|-9*-5*----777777777777-8--|
D|-9--5--5*-777777777777-8--|
A|-7--3--5--555555555555-6--|
E|-------3------------------|
*14x

Outro:

e|-7-8-7---7-8-7---7---7----7-8-7---|
B|-------8-------8-------10-------8-|
G|-------------------9--------------|
D|----------------------------------|
A|----------------------------------|
E|----------------------------------|

Clipes