busca

You'll Never Make it

Pennywise

Tom: C
intro:verse:
e-|-----------------------------------------------------------------
B-|-----------------------------------------------------------------
G-|-----------------------------------------------------------------
D-|---------------7---------------7---------------7---------9-9-9-9-
A-|-9-9-9-9-9-9-9-5-5-5-5-5-7-7-7-5-9-9-9-9-9-9-9-5-5-5-5-5-7-7-7-7-
E-|-7-7-7-7-7-7-7---3-3-3-3-5-5-5---7-7-7-7-7-7-7---3-3-3-3---------

e-|-----------------------------------------------------------------|
B-|-----------------------------------------------------------------|
G-|-------------------------------------------------7-7-7-7-9-9-9-9-|
D-|---------------7---------------7-----------------x-x-x-x-x-x-x-x-|
A-|-9-9-9-9-9-9-9-5-5-5-5-5-7-7-7-5-9-9-9-9-9-9-9-9-5-5-5-5-7-7-7-7-|
E-|-7-7-7-7-7-7-7---3-3-3-3-5-5-5---7-7-7-7-7-7-7-7-----------------|

chorus:
e-|-------------------------------------------------------------------------
B-|-------------------------------------------------------------------------
G-|-------------------------------------------------10-10-7-9-10------------
D-|---------------------------------------7-------7--x--x-x-x--x------------
A-|-5-5-5-5-5-5-5-5-7-7-7-7-7-7-7-7-9-9-9-5-9-9-9-5--8--8-5-7--8------------
E-|-3-3-3-3-3-3-3-3-5-5-5-5-5-5-5-5-7-7-7---7-7-7---------------------------

e-|-------------------------------------------------------------------------
B-|-------------------------------------------------------------------------
G-|-------------------------------------------------10-10-7-9-10------------
D-|---------------------------------------7-------7--x--x-x-x--x------------
A-|-5-5-5-5-5-5-5-5-7-7-7-7-7-7-7-7-9-9-9-5-9-9-9-5--8--8-5-7--8------------
E-|-3-3-3-3-3-3-3-3-5-5-5-5-5-5-5-5-7-7-7---7-7-7---------------------------

e-|------------------------------------|
B-|------------------------------------|
G-|------------------------------------|
D-|------------------------------------|
A-|-5-5-5-5-5-5-5-5-7--9-9-9-9-9-9-9-9-|
E-|-3-3-3-3-3-3-3-3-5--7-7-7-7-7-7-7-7-|

bridge:(part1)
e-|------------------------------------------------------------------
B-|------------------------------------------------------------------
G-|------------------------------------------------------------------
D-|-7-7-7-7-7-7-7-7---------------------------------------10---------
A-|-5-5-5-5-5-5-5-5-5-5-5-5-5-5-5-5-9-9-9-9-9-9-9-9-9-9-9--8-9-9-9-9-
E-|-----------------3-3-3-3-3-3-3-3-7-7-7-7-7-7-7-7-7-7-7----7-7-7-7-

bridge:(part2)
e-|-----------------------------------------------------------------
B-|-----------------------------------------------------------------
G-|-----------------------------------------------------------------
D-|-7-7-7-7-7-7-7-7---------------------------------2-2-2-2-2-2-2-2-
A-|-5-5-5-5-5-5-5-5-5-5-5-5-5-5-5-5-2-2-2-2-2-2-2-2-0-0-0-0-0-0-0-0-
E-|-----------------3-3-3-3-3-3-3-3-0-0-0-0-0-0-0-0-----------------

e-|-----------------------------------------------------------|
B-|-----------------------------------------------------------|
G-|-----------------------------------------------------------|
D-|-4-4-4-4-4-4-4-4-7-7-7-7-7-7-7-7-9-9-9-9-9-9-9-9-9-9-9-9-9-|
A-|-2-2-2-2-2-2-2-2-5-5-5-5-5-5-5-5-7-7-7-7-7-7-7-7-7-7-7-7-7-|
E-|-----------------------------------------------------------|

bridge:(part3)
e-|---------------------------------|
B-|---------------------------------|
G-|---------------------------------|
D-|---------------------------------|
A-|-9-9-9-9-9-9-9-9-5-5-5-5-7-7-7-7-|
E-|-7-7-7-7-7-7-7-7-3-3-3-3-5-5-5-5-|

Clipes

Cifra Club Pro

Aproveite o Cifra Club com benefícios exclusivos e sem anúncios
7 dias grátis
Cifra Club Pro
Aproveite o Cifra Club com benefícios exclusivos e sem anúncios
7 dias grátis