Wish You Were Here

Pink Floyd

Am
123
X02210
Am/E
123
0X2210
C
123
X32010
D/F#
1234
2X0232
G
123
320003
Tom: G
[Intro]

[Riff 1]

#1t1##1t2#E|------------------------------------------|
B|------------------------------------------|
G|------------------------------------------|
D|-----0-2----------------------------------|
A|-0h2--------------------------------------|
E|------------------------------------------|#/1t2##/1t1#

[Riff 2]

#2t1##2t2#E|------------------------------------------|
B|------------------------------------------|
G|-0----------------------------------------|
D|---2-0------------------------------------|
A|------------------------------------------|
E|------------------------------------------|#/2t2##/2t1#

[Riff 3]

#3t1##3t2#E|------------------------------------------|
B|------------------------------------------|
G|------------------------------------------|
D|-------0-2--------------------------------|
A|---0h2------------------------------------|
E|-3----------------------------------------|#/3t2##/3t1#

[Riff 4]

#4t1##4t2#E|------------------------------------------|
B|------------------------------------------|
G|---0--------------------------------------|
D|-2---2-0----------------------------------|
A|------------------------------------------|
E|------------------------------------------|#/4t2##/4t1#

[Riff 3]

#5t1##5t2#E|------------------------------------------|
B|------------------------------------------|
G|------------------------------------------|
D|-------0-2--------------------------------|
A|---0h2------------------------------------|
E|-3----------------------------------------|#/5t2##/5t1#

[Riff 5]

#6t1##6t2#E|------------------------------------------|
B|------------------------------------------|
G|------------------------------------------|
D|-2-0--------------------------------------|
A|-----2-0----------------------------------|
E|------------------------------------------|#/6t2##/6t1#

[Riff 1]

#7t1##7t2#E|------------------------------------------|
B|------------------------------------------|
G|------------------------------------------|
D|-----0-2----------------------------------|
A|-0h2--------------------------------------|
E|------------------------------------------|#/7t2##/7t1#

[Riff 5]

#8t1##8t2#E|------------------------------------------|
B|------------------------------------------|
G|------------------------------------------|
D|-2-0--------------------------------------|
A|-----2-0----------------------------------|
E|------------------------------------------|#/8t2##/8t1#

[Riff 6]

#9t1##9t2#E|------------------------------------------|
B|------------------------------------------|
G|------------------------------------------|
D|-----0------------------------------------|
A|-0h2--------------------------------------|
E|------------------------------------------|#/9t2##/9t1#

[Solo 1]

[Parte 1]

#10t1##10t2#E|--------------------------------3/5-5/3------------|
B|-------3--5---3-----------------3/5-5/3-3/5-5/3p0--|
G|-2h3/4------4---4p2p0-------------------2/4-4/2p0--|
D|----------------------0-----0-0--------------------|
A|------------------------1/2------------------------|
E|---------------------------------------------------|#/10t2##/10t1#

#11t1##11t2#E|---------------------------------------------------|
B|-3/5-5/3p0-----------------------------------------|
G|-2/4-4/2p0--4--------------------------------------|
D|------------5--------------------------------------|
A|---------------------------------------------------|
E|---------------------------------------------------|#/11t2##/11t1#

[Parte 2]

#12t1##12t2#E|---------------------------------------------------|
B|-------3---5-5b7r5p3---3--------3h5----------------|
G|-2h3/4---4-----------4---2~-4b6-----4b6-2~---------|
D|---------------------------------------------------|
A|---------------------------------------------------|
E|---------------------------------------------------|#/12t2##/12t1#

[Parte 3]

#13t1##13t2#E|---------------------------------------------------|
B|-------3---5-5b7-7r5p3-5---------------------------|
G|-2h3/4---4----------------2~-4b6r4-2---------------|
D|---------------------------------------------------|
A|---------------------------------------------------|
E|---------------------------------------------------|#/13t2##/13t1#

[Primeira parte]

C                         D/F#
So, so you think you can tell
             Am/E                  G                         D/F#
Heaven from hell, Blue skies from pain. Can you tell a green field
                  C                    Am                         G
From a cold steel rail, A smile from a veil? Do you think you can tell?
                    C                       D/F#                  Am/E
Did they get you to trade, Your heroes for ghosts, Hot ashes for trees
                G                           D/F#              C
Hot air for a cool breeze, Cold comfort for change? Did you exchange
                      Am                          G
A walk on part in the war, For a lead role in a cage?

[Solo 2]

[Parte 1]

#14t1##14t2#E|-------------------10/12-10------------------------|
B|-10b12-12-12-10b12----------10b12-12r10------------|
G|---------------------------------------------------|
D|---------------------------------------------------|
A|---------------------------------------------------|
E|---------------------------------------------------|#/14t2##/14t1#

#15t1##15t2#E|------12-------------------------------------------|
B|-10b12----10~-10b12r10p8---------------------------|
G|-------------------------11---7--------------------|
D|----------------------------9---9------------------|
A|---------------------------------------------------|
E|---------------------------------------------------|#/15t2##/15t1#

#16t1#[Parte 2]
#16t2#E|-------------10-10-10-10-------10-10---------------|
B|-------10b12-------------10b12---------------------|
G|-9-9-9---------------------------------------------|
D|---------------------------------------------------|
A|---------------------------------------------------|
E|---------------------------------------------------|#/16t2##/16t1#

#17t1##17t2#E|-10-10-10-10-10-10---------------------------------|
B|-------------------12r10p8-------------------------|
G|---------------------------9-----------------------|
D|---------------------------------------------------|
A|---------------------------------------------------|
E|---------------------------------------------------|#/17t2##/17t1#

#18t1#[Parte 3]
#18t2#E|-------12------------------------------------------|
B|-12b14----14-12b14-14-14-14-10b12------------------|
G|---------------------------------------------------|
D|---------------------------------------------------|
A|---------------------------------------------------|
E|---------------------------------------------------|#/18t2##/18t1#

#19t1##19t2#E|-10-10-10-10---------------------------------------|
B|-------------12----8-10-10b12r10p8-10--------------|
G|-----------------9---------------------------------|
D|---------------------------------------------------|
A|---------------------------------------------------|
E|---------------------------------------------------|#/19t2##/19t1#

#20t1##20t2#E|-------14------------------------------------------|
B|-12b14----14r12p10-12------------------------------|
G|---------------------------------------------------|
D|---------------------------------------------------|
A|---------------------------------------------------|
E|---------------------------------------------------|#/20t2##/20t1#

C                               D/F#
How I wish, how I wish you were here
           Am/E                                G                  D/F#
We're just two lost souls swimming in a fish bowl, Year after year
                                C                                    Am
Running over the same old ground,  What have we found?  The same old fears
               G
Wish you were here

[Solo 3]

[Parte 1]

#21t1##21t2#E|---------------------------------------------------|
B|---------------------------------------------------|
G|---7---7-9---7---7----7-9--------------------------|
D|-9---9-----9---9---9-------------------------------|
A|---------------------------------------------------|
E|---------------------------------------------------|#/21t2##/21t1#

#22t1##22t2#E|---------------------------------------------------|
B|-10b12-10-8----------------------------------------|
G|------------9---7---7-9----------------------------|
D|--------------9---9-----9--------------------------|
A|---------------------------------------------------|
E|---------------------------------------------------|#/22t2##/22t1#

#23t1#[Parte 2]
#23t2#E|-----------------10-12p10--------------------------|
B|---8---8-10-10b12---------12-10b12-12r10p8---12-12-|
G|-9---9-------------------------------------9-------|
D|---------------------------------------------------|
A|---------------------------------------------------|
E|---------------------------------------------------|#/23t2##/23t1#

#24t1#[Parte 3]
#24t2#E|-------10-10-------10-10-------10-10---------------|
B|-10b12-------10b12-------10b12-------10-12-10------|
G|---------------------------------------------------|
D|---------------------------------------------------|
A|---------------------------------------------------|
E|---------------------------------------------------|#/24t2##/24t1#

#25t1##25t2#E|------12------------10---------10---------10-------|
B|12b14----14r12-8/12----8h10b12----8h10b12---8h10b12|
G|---------------------------------------------------|
D|---------------------------------------------------|
A|---------------------------------------------------|
E|---------------------------------------------------|#/25t2##/25t1#

#26t1##26t2#E|10-------------------------------------------------|
B|---12r10p8-----8---8---8----8---8-10-10-10p8-----8-|
G|-----------9-9---9---9----9---9--------------9-7---|
D|---------------------------------------------------|
A|---------------------------------------------------|
E|---------------------------------------------------|#/26t2##/26t1#
Composição: David Gilmour / Roger WatersColaboração e revisão: Gustavo CunhaManuela CavignatoJorge Ribeiropedro souxae mais 7
Videoaula Wish You Were Here (aula de violão completa)