busca

Wish You Were Here

Pink Floyd

Tom: G
[Intro]

[Riff 1]

E|------------------------------------------|
B|------------------------------------------|
G|------------------------------------------|
D|-----0-2----------------------------------|
A|-0h2--------------------------------------|
E|------------------------------------------|

[Riff 2]

E|------------------------------------------|
B|------------------------------------------|
G|-0----------------------------------------|
D|---2-0------------------------------------|
A|------------------------------------------|
E|------------------------------------------|

[Riff 3]

E|------------------------------------------|
B|------------------------------------------|
G|------------------------------------------|
D|-------0-2--------------------------------|
A|---0h2------------------------------------|
E|-3----------------------------------------|

[Riff 4]

E|------------------------------------------|
B|------------------------------------------|
G|---0--------------------------------------|
D|-2---2-0----------------------------------|
A|------------------------------------------|
E|------------------------------------------|

[Riff 3]

E|------------------------------------------|
B|------------------------------------------|
G|------------------------------------------|
D|-------0-2--------------------------------|
A|---0h2------------------------------------|
E|-3----------------------------------------|

[Riff 5]

E|------------------------------------------|
B|------------------------------------------|
G|------------------------------------------|
D|-2-0--------------------------------------|
A|-----2-0----------------------------------|
E|------------------------------------------|

[Riff 1]

E|------------------------------------------|
B|------------------------------------------|
G|------------------------------------------|
D|-----0-2----------------------------------|
A|-0h2--------------------------------------|
E|------------------------------------------|

[Riff 5]

E|------------------------------------------|
B|------------------------------------------|
G|------------------------------------------|
D|-2-0--------------------------------------|
A|-----2-0----------------------------------|
E|------------------------------------------|

[Riff 6]

E|------------------------------------------|
B|------------------------------------------|
G|------------------------------------------|
D|-----0------------------------------------|
A|-0h2--------------------------------------|
E|------------------------------------------|

[Solo 1]

[Parte 1]

E|--------------------------------3/5-5/3------------|
B|-------3--5---3-----------------3/5-5/3-3/5-5/3p0--|
G|-2h3/4------4---4p2p0-------------------2/4-4/2p0--|
D|----------------------0-----0-0--------------------|
A|------------------------1/2------------------------|
E|---------------------------------------------------|

E|---------------------------------------------------|
B|-3/5-5/3p0-----------------------------------------|
G|-2/4-4/2p0--4--------------------------------------|
D|------------5--------------------------------------|
A|---------------------------------------------------|
E|---------------------------------------------------|

[Parte 2]

E|---------------------------------------------------|
B|-------3---5-5b7r5p3---3--------3h5----------------|
G|-2h3/4---4-----------4---2~-4b6-----4b6-2~---------|
D|---------------------------------------------------|
A|---------------------------------------------------|
E|---------------------------------------------------|

[Parte 3]

E|---------------------------------------------------|
B|-------3---5-5b7-7r5p3-5---------------------------|
G|-2h3/4---4----------------2~-4b6r4-2---------------|
D|---------------------------------------------------|
A|---------------------------------------------------|
E|---------------------------------------------------|

[Primeira parte]

C                         D/F#
So, so you think you can tell
             Am/E                  G                         D/F#
Heaven from hell, Blue skies from pain. Can you tell a green field
                  C                    Am                         G
From a cold steel rail, A smile from a veil? Do you think you can tell?
                    C                       D/F#                  Am/E
Did they get you to trade, Your heroes for ghosts, Hot ashes for trees
                G                           D/F#              C
Hot air for a cool breeze, Cold comfort for change? Did you exchange
                      Am                          G
A walk on part in the war, For a lead role in a cage?

[Solo 2]

[Parte 1]

E|-------------------10/12-10------------------------|
B|-10b12-12-12-10b12----------10b12-12r10------------|
G|---------------------------------------------------|
D|---------------------------------------------------|
A|---------------------------------------------------|
E|---------------------------------------------------|

E|------12-------------------------------------------|
B|-10b12----10~-10b12r10p8---------------------------|
G|-------------------------11---7--------------------|
D|----------------------------9---9------------------|
A|---------------------------------------------------|
E|---------------------------------------------------|

[Parte 2]
E|-------------10-10-10-10-------10-10---------------|
B|-------10b12-------------10b12---------------------|
G|-9-9-9---------------------------------------------|
D|---------------------------------------------------|
A|---------------------------------------------------|
E|---------------------------------------------------|

E|-10-10-10-10-10-10---------------------------------|
B|-------------------12r10p8-------------------------|
G|---------------------------9-----------------------|
D|---------------------------------------------------|
A|---------------------------------------------------|
E|---------------------------------------------------|

[Parte 3]
E|-------12------------------------------------------|
B|-12b14----14-12b14-14-14-14-10b12------------------|
G|---------------------------------------------------|
D|---------------------------------------------------|
A|---------------------------------------------------|
E|---------------------------------------------------|

E|-10-10-10-10---------------------------------------|
B|-------------12----8-10-10b12r10p8-10--------------|
G|-----------------9---------------------------------|
D|---------------------------------------------------|
A|---------------------------------------------------|
E|---------------------------------------------------|

E|-------14------------------------------------------|
B|-12b14----14r12p10-12------------------------------|
G|---------------------------------------------------|
D|---------------------------------------------------|
A|---------------------------------------------------|
E|---------------------------------------------------|

C                               D/F#
How I wish, how I wish you were here
           Am/E                                G                  D/F#
We're just two lost souls swimming in a fish bowl, Year after year
                                C                                    Am
Running over the same old ground,  What have we found?  The same old fears
               G
Wish you were here

[Solo 3]

[Parte 1]

E|---------------------------------------------------|
B|---------------------------------------------------|
G|---7---7-9---7---7----7-9--------------------------|
D|-9---9-----9---9---9-------------------------------|
A|---------------------------------------------------|
E|---------------------------------------------------|

E|---------------------------------------------------|
B|-10b12-10-8----------------------------------------|
G|------------9---7---7-9----------------------------|
D|--------------9---9-----9--------------------------|
A|---------------------------------------------------|
E|---------------------------------------------------|

[Parte 2]
E|-----------------10-12p10--------------------------|
B|---8---8-10-10b12---------12-10b12-12r10p8---12-12-|
G|-9---9-------------------------------------9-------|
D|---------------------------------------------------|
A|---------------------------------------------------|
E|---------------------------------------------------|

[Parte 3]
E|-------10-10-------10-10-------10-10---------------|
B|-10b12-------10b12-------10b12-------10-12-10------|
G|---------------------------------------------------|
D|---------------------------------------------------|
A|---------------------------------------------------|
E|---------------------------------------------------|

E|------12------------10---------10---------10-------|
B|12b14----14r12-8/12----8h10b12----8h10b12---8h10b12|
G|---------------------------------------------------|
D|---------------------------------------------------|
A|---------------------------------------------------|
E|---------------------------------------------------|

E|10-------------------------------------------------|
B|---12r10p8-----8---8---8----8---8-10-10-10p8-----8-|
G|-----------9-9---9---9----9---9--------------9-7---|
D|---------------------------------------------------|
A|---------------------------------------------------|
E|---------------------------------------------------|

Clipes

Cifra Club Pro

Aproveite o Cifra Club com benefícios exclusivos e sem anúncios
Cifra Club Pro
Aproveite o Cifra Club com benefícios exclusivos e sem anúncios