Shadow Of The Colossus - Rap

Player Tauz

Am
123
X02210
E
123
022100
F
234
133211
G
123
320003
Tom: G
[Intro]


     Am
E|-----------------------| 
B|------1----1---1-------| 
G|--2------2-------2-----| 
D|--2----------------2---| 
A|--0--------------------| 
E|-----------------------| 



     F
E|-----------------------| 
B|--------1---1---1------| 
G|--2--------------------| 
D|--3---3---3---3---3----| 
A|--3--------------------| 
E|--1--------------------| 



     G
E|-----------------------| 
B|--0---3---3---3--------| 
G|--0-----0-------0------| 
D|--0---------------0----| 
A|-----------------------| 
E|--3--------------------| 



     E
E|-----------------------| 
B|--0---0--0--0----------| 
G|--1---1--1--1----------| 
D|--2---2--2--2----------| 
A|-----------------------| 
E|--0--------------------| 


[Primeira Parte]

Am
Eu ando solitário, num lugar 
abandonado
F
Apenas do meu lado tenho Agro meu 
cavalo
G
Nenhuma melodia além do som dos 
pássaros
E
Vagando por aqui, eu só escuto os 
meus passos

Am
Me sinto no vale da sombra e a da 
morte
F
Mas não temerei o mal, mesmo não 
sendo tão forte
G
Refletindo contra o sol, levanto 
minha espada
E
Que ilumina e me guia, nessa 
caminhada

Am
Sacrificaram quem eu amo, por ela eu
 vou lutar
F
Vou fazer o impossível para ela 
voltar
G
Se derrotando os colossos, é a única
 forma
E
Vencerei um por um, pra trazer ela 
de volta

Am
Diante dessas criaturas sou apenas 
um mortal
F
Nem por isso eu me rendo, vou até o 
final
G
Entre planícies e ruínas, junto com 
a solidão
E Eu não tenho medo, sou movido pelo coração [Refrão] Am Tenho confiança Tenho esperança F Esse é o poder, de quem luta por quem ama G Vou ficar (vou ficar) Pra lutar (pra lutar) E Na sombra dos gigantes, nunca vou me entregar Am Tenho confiança Tenho esperança F Esse é o poder, de quem luta por quem ama G Vou ficar (vou ficar) Pra lutar (pra lutar) E Na sombra dos gigantes, nunca vou me entregar [Segunda Parte] Am Não deveria estar aqui, na Terra Proibida F Mas vou continuar, nem que eu perca minha vida G A paisagem é muito linda mas eu sinto um vazio E Eu sou tão pequeno nesse mundo hostil Am Com a espada e meu arco, não tenho armadura F Mas enfrento cada uma, dessas criaturas G Como uma história que eu já ouvi E Lutando contra gigantes me sinto Davi Am E são 16, espalhados por aqui F O caminho deles eu preciso descobrir G Uns estão no céu, outros pelo mar E Mas eu vou encontrar, e todos derrotar Am E pra isso eu acerto bem no ponto vital F Mas um, caiu com a espada ancestral G Entre planícies e ruínas, junto com a solidão E Eu não tenho medo, sou movido pelo coração [Refrão] Am Tenho confiança Tenho esperança F Esse é o poder, de quem luta por quem ama G Vou ficar (vou ficar) Pra lutar (pra lutar) E Na sombra dos gigantes, nunca vou me entregar Am Tenho confiança Tenho esperança F Esse é o poder, de quem luta por quem ama G Vou ficar (vou ficar) Pra lutar (pra lutar) E Na sombra dos gigantes, nunca vou me entregar
Composição: Colaboração e revisão: Marco DornelVitor DoomKid