All Dead, All Dead

Queen

A
123
X02220
A7
12
X02020
Am
123
X02210
B/F
1234
XX3443
Bb
234
X13331
C
123
X32010
C/F
34
X810988
C7
1234
X3231X
D
123
XX0232
Dm
123
XX0231
F
234
133211
Gm
34
355333
Tom: G
#1t1#Intro:
 Dm Bb F                   F
#1t2#-0--6---8----8----8-10--6---8--8-6-3-
-1--6--10---11--11-----6---10-10-8-6-
-2--7--10-----10------7----10--9-7-6-
-3--8--10----8-------------10-10-8---
----8---8-----------8----------------
----6--------------------------------#/1t2##/1t1#

Dm     A      Dm
She came without a farthing
           A     Dm
A babe without a name
   Dm   C        F
So much ado 'bout nothing
   Gm        A      Dm
Is what she's try to say
   Dm   A     Dm
So much ado my lover
   Dm   A       Dm
So many games we played
         Dm  C       F
Through ev'ry fleeted summer
        Gm   A        Dm
Through ev'ry precious day
C   F    Gm F
All dead all dead
 F      Bb     C7 F
All the dreams we had
        F     C   Am Am/C#    Bb  C D
And I wonder why I  still   live on
C   F    Gm  F
All dead all dead
     Bb   C7    F
And alone I'm spared
  F         A7      Dm   C
My sweeter half instead
     Bb       F        Bb
All dead and gone all dead

Dm   A     Dm
Dm   A     Dm
Dm   C     F
Gm   A     Dm

C   F    Gm F
All dead all dead
       Bb    C7  F
At the rainbow's end
      F      C       Dm  Am  Bb  C D
And still I hear her own sweet song
C   F    Gm F
All dead all dead
 F      Bb     F
Take me back again
  F         A7     Dm
You know my little friend's
 C   Bb       F
All dead and gone

Solo:

    Dm      A      Dm
Her ways are always with me
   Dm    A       Dm
I wonder all the while
     Dm       C       F
But please you must forgive me
     Gm     A       Dm
I am old but still a child
C   F    Gm F
All dead all dead
F     Bb         F
But I should not grieve
    F       C       Dm  Am Bb C D
In time it comes to ev'ryone
C   F    Gm F
All dead all dead
F      Bb     F
But in hope I breathe
F           A7      Dm
Of course I don't believe
 C      Bb       F
You're dead and gone
    Bb       F
All dead and gone

#2t1##2t2#-----------1-
-------------
-----2-------
---3-----3---
-------3-----
-1-----------#/2t2##/2t1#

#3t1##3t2#--==Versão 2==-#/3t2##/3t1#

#4t1#intro
#4t2#->0----------->6---10---12---13------------>-8---12---13----------
->1-----------<6--------------------10-----<10----------------10--
-<2----------->7--------------------------->10--------------------
->3----------->8---------------------------<----------------------
-------------8----------------------------->-8--------------------
-----------6------------------------------------------------------#/4t2##/4t1#

#5t1##5t2#--8-------8-10-----6-5----5----3----3----
-11----11--------6---6----5----3----6----
----10---------7-----5----5----3----6----
--8--------------------------------------
-------------8---------------------------
-----------------------------------------#/5t2##/5t1#

#6t1#verse:
#6t2#---1---------0-1-----------1-------3---1-----------
---3---3-2-----3-------3---3---3-2-----3-------3---
-2-------2-------2---------2-----2---2---2---------
---0-----2-----0---3-0---0-0-----2-----0---3-0---0-
--------(4)----------------------------------------
---------------------------------------------------#/6t2##/6t1#

#7t1##7t2#---1-----0----------1-------------0---1-------
---3-----1-----1------------------3-2-3-------
---2-----0-----2------------3---0-2---2-------
---0---0----------3-----3---5-----------0-----
---------3---3--------------------0-----------
---------------1------1---1-3-----------------#/7t2##/7t1#


#8t1#chorus
#8t2#-------------------------------1-----0---1-----------
-----------------1-------1-----3-----1---1-----------
-0---2-------3---2-------2-----3-----3---2-----------
-2---3-------5---3-------3---------------3-------3---
-3---3-----------0-------------1-----3-----3-0-------
-0---1-------3-----------1---------------------1---1-#/8t2##/8t1#


#9t1##9t2#-1-----0-----1-----1---1--------------------------------------------------
-1-----1-----3-----1---3-----------------------------------1-------1-----
-2-----0-----2-----2---3-------------------0---2-------3---2-------2-----
-3---3-2---2-0-----------------------0-----2---3-------5---3-------3-----
-------------------3-----1-----3-----------3---3-------------0-----------
-------------------------------------------------1-----3-----------1-----#/9t2##/9t1#


#10t1##10t2#-1-----0---1------------1-----0-----1-----1-----1----
-3-----1---1------------1-----2-----3-----1-----3----
-3-----3---2------------2-----0-----2-----2-----3----
-------------3------3---3---3-------0----------------
-1-----3------3-0-------------0---0-------3-----1----  F, B, ...
------------------1---1------------------------------#/10t2##/10t1#


#11t1#Solo
#11t2#---------------------1-----1---------------------------------------------
---------------------3-----3-----------------3-----5-----6----8-----5----
---------------------3-----2-----------------4-----6-----7----9-----6----
---------------------------0-----0-----0-----0---------------------------#/11t2##/11t1#
#12t1#...1-----1-----1-----1-----------------------------0-----0----0-----0----
#12t2#-------------------------------------------------------------------------#/12t2##/12t1#


#13t1##13t2#-------------------------------------3------------------------5----
-7-----8----10-----3-----5-----6-----5-----5-----6------8-----6----
-6-----9----10-----4-----6-----7-----6-----6-----7------9-----7----
-------------------------------------------------0------0-----0----
-0-----0-----0-----0-----0-----0-----0-----0-----------------------
-------------------------------------------------------------------#/13t2##/13t1#


F, B/F, C/F, F


#14t1##14t2#-3-----5-6-----6-----5-----5-----3-----3---
-3-----5-6-----6-----6-----5-----3-----2---
-3-2-0-5-7-----5-----5-----5-----3-----0---
-0-------------5-----------------0-----3---
-------7-8-----------------------------0---
-------------------------------------------#/14t2##/14t1#
(arrangement, not transcription!)

...


#15t1#end:
#15t2#-----------1-
-------------
-----2-------
---3-----3---
-------3-----
-1-----------#/15t2##/15t1#
Composição: Alfonso Cayetano / Brian May / Freddie Mercury / Gene Pitney / Montserrat CaballeColaboração e revisão: Taino Vieira