busca

All Dead, All Dead

Queen

Tom: F
Intro:
 Dm Bb F                   F
-0--6---8----8----8-10--6---8--8-6-3-
-1--6--10---11--11-----6---10-10-8-6-
-2--7--10-----10------7----10--9-7-6-
-3--8--10----8-------------10-10-8---
----8---8-----------8----------------
----6--------------------------------

Dm     A      Dm
She came without a farthing
           A     Dm
A babe without a name
   Dm   C        F
So much ado 'bout nothing
   Gm        A      Dm
Is what she's try to say
   Dm   A     Dm
So much ado my lover
   Dm   A       Dm
So many games we played
         Dm  C       F
Through ev'ry fleeted summer
        Gm   A        Dm
Through ev'ry precious day
C   F    Gm F
All dead all dead
 F      Bb     C7 F
All the dreams we had
        F     C   Am Am/C#    Bb  C D
And I wonder why I  still   live on
C   F    Gm  F
All dead all dead
     Bb   C7    F
And alone I'm spared
  F         A7      Dm   C
My sweeter half instead
     Bb       F        Bb
All dead and gone all dead

Dm   A     Dm
Dm   A     Dm
Dm   C     F
Gm   A     Dm

C   F    Gm F
All dead all dead
       Bb    C7  F
At the rainbow's end
      F      C       Dm  Am  Bb  C D
And still I hear her own sweet song
C   F    Gm F
All dead all dead
 F      Bb     F
Take me back again
  F         A7     Dm
You know my little friend's
 C   Bb       F
All dead and gone

Solo:

    Dm      A      Dm
Her ways are always with me
   Dm    A       Dm
I wonder all the while
     Dm       C       F
But please you must forgive me
     Gm     A       Dm
I am old but still a child
C   F    Gm F
All dead all dead
F     Bb         F
But I should not grieve
    F       C       Dm  Am Bb C D
In time it comes to ev'ryone
C   F    Gm F
All dead all dead
F      Bb     F
But in hope I breathe
F           A7      Dm
Of course I don't believe
 C      Bb       F
You're dead and gone
    Bb       F
All dead and gone

-----------1-
-------------
-----2-------
---3-----3---
-------3-----
-1-----------

--==Versão 2==-

intro
->0----------->6---10---12---13------------>-8---12---13----------
->1-----------<6--------------------10-----<10----------------10--
-<2----------->7--------------------------->10--------------------
->3----------->8---------------------------<----------------------
-------------8----------------------------->-8--------------------
-----------6------------------------------------------------------

--8-------8-10-----6-5----5----3----3----
-11----11--------6---6----5----3----6----
----10---------7-----5----5----3----6----
--8--------------------------------------
-------------8---------------------------
-----------------------------------------

verse:
---1---------0-1-----------1-------3---1-----------
---3---3-2-----3-------3---3---3-2-----3-------3---
-2-------2-------2---------2-----2---2---2---------
---0-----2-----0---3-0---0-0-----2-----0---3-0---0-
--------(4)----------------------------------------
---------------------------------------------------

---1-----0----------1-------------0---1-------
---3-----1-----1------------------3-2-3-------
---2-----0-----2------------3---0-2---2-------
---0---0----------3-----3---5-----------0-----
---------3---3--------------------0-----------
---------------1------1---1-3-----------------


chorus
-------------------------------1-----0---1-----------
-----------------1-------1-----3-----1---1-----------
-0---2-------3---2-------2-----3-----3---2-----------
-2---3-------5---3-------3---------------3-------3---
-3---3-----------0-------------1-----3-----3-0-------
-0---1-------3-----------1---------------------1---1-


-1-----0-----1-----1---1--------------------------------------------------
-1-----1-----3-----1---3-----------------------------------1-------1-----
-2-----0-----2-----2---3-------------------0---2-------3---2-------2-----
-3---3-2---2-0-----------------------0-----2---3-------5---3-------3-----
-------------------3-----1-----3-----------3---3-------------0-----------
-------------------------------------------------1-----3-----------1-----


-1-----0---1------------1-----0-----1-----1-----1----
-3-----1---1------------1-----2-----3-----1-----3----
-3-----3---2------------2-----0-----2-----2-----3----
-------------3------3---3---3-------0----------------

-1-----3------3-0-------------0---0-------3-----1----  F, B, ...
------------------1---1------------------------------


Solo
---------------------1-----1---------------------------------------------
---------------------3-----3-----------------3-----5-----6----8-----5----
---------------------3-----2-----------------4-----6-----7----9-----6----
---------------------------0-----0-----0-----0---------------------------
...1-----1-----1-----1-----------------------------0-----0----0-----0----
-------------------------------------------------------------------------


-------------------------------------3------------------------5----
-7-----8----10-----3-----5-----6-----5-----5-----6------8-----6----
-6-----9----10-----4-----6-----7-----6-----6-----7------9-----7----
-------------------------------------------------0------0-----0----
-0-----0-----0-----0-----0-----0-----0-----0-----------------------
-------------------------------------------------------------------


F, B/F, C/F, F


-3-----5-6-----6-----5-----5-----3-----3---
-3-----5-6-----6-----6-----5-----3-----2---
-3-2-0-5-7-----5-----5-----5-----3-----0---
-0-------------5-----------------0-----3---
-------7-8-----------------------------0---
-------------------------------------------
(arrangement, not transcription!)

...


end:
-----------1-
-------------
-----2-------
---3-----3---
-------3-----
-1-----------

Clipes