Another One Bites The Dust

Queen

A
123
X02220
Am
123
X02210
B
234
X24442
C
123
X32010
E
123
022100
Em
12
022000
F#
234
244322
G
123
320003
Tom: G
[Intro]


E|-------------------------------
B|-------------------------------
G|-------------------------------
D|-------------------------------
A|-------------------------------
E|-5-3-0--0--0-----0-0-0--3-0-5--

E|------------------------------| 
B|------------------------------| 
G|------------------------------| 
D|------------------------------| 
A|------------------------------| 
E|5-3-0--0--0-----0-0-0--3-0-5--| 


[Riff 1]


E|--------------------------------
B|--------------------------------
G|-------------------0---2--------
D|-2--2--2-----2-2-2---2----2--2--
A|--------------------------------
E|--------------------------------

E|------------------| 
B|------------------| 
G|------------0---2-| 
D|2-----2-2-2---2---| 
A|------------------| 
E|------------------| 


Let´s go
Steve walks warily down
The street
With his brim pulled way
Down low
Ain´t no sound but the sound of
His feet
Machine guns ready to go
          C              G
Are you ready, are you ready
For this
            C                      
Are you hanging on the edge of you 
 G
seat
C                               G
Out of the doorway the bullets rip
 A                         B   E
To the sound of the beat, yeah

(riff 1)
Another on bites the dust
Another one bites the dust
And another one goes and
another one gone
Another one bites the dust
 F#                    A
Hey,I´m gonna get you too
F#                     B   E  G 
Another one bites the dust
 E  A


Em How do you think I´m going to get alone Am Without you when you are gone Em You took me for everything that I had Am And kicket me out on my own C G Are you happy, are you sastisfied C G How long can you stand the heat C G Out of the doorway the bullets rip A B To the sound of the beat Another on bites the dust Another one bites the dust And another one goes and another one gone Another one bites the dust F# A Hey,I´m gonna get you too F# B E Another one bites the dust Another one bites the dust Another one bites the dust houuu Another one bites the dust Hey,hey Another one bites the dust E G E A Heee Em There are plenty of ways, You can hurt a man Am And bring him to the ground Em You can beat him You can cheat him bad and You can treat him bad and leave him Am When he´s down C G But I´m ready,yes I´m ready for you C G I´m standing on my own two feet C G Out of the doorway the bullets rip A B Repeating to the sound of the beat Oh, yeah,another one bites the dust Another one bites the dust And another one goes and Another one gone Another one bites the dust F# A Hey, I´m gonna get you too F# B Another one bites the dust Em Am Heee All right
Composição: John DeaconColaboração e revisão: Radical SportsMarcos PauloTaino Vieira

Utilizamos cookies para personalizar sua experiência. Ao acessar o site, você concorda com a nossa Política de Privacidade.