busca

Bohemian Rhapsody

Queen

Tom: D
Solo:

E|----------------------------------------------------|
B|-----------------11~---8--11b13~--------------------|
G|------10b12r10p8------------------------------------|
D|-8~-------------------------------------------------|
A|----------------------------------------------------|
E|----------------------------------------------------|

E|-------------------------------15-16-18-b20~r-------|
B|-13--15-16-13--15-16-b18----18----------------------|
G|----------------------------------------------------|
D|----------------------------------------------------|
A|----------------------------------------------------|
E|----------------------------------------------------|

E|-16-15-16-15h16p15----15----------------------------|
B|-------------------18----18-16-15-16-15h16p15----15-|
G|----------------------------------------------17----|
D|----------------------------------------------------|
A|----------------------------------------------------|
E|----------------------------------------------------|

E|----------------------------------------------------|
B|----------------------------------------------------|
G|-17-15-15~------------------------------------------|
D|----------------------------------------------------|
A|----------------------------------------------------|
E|----------------------------------------------------|

E|-------------------15-16-18-------------------------|
B|----------15-16-18----------------------------------|
G|-15~---17-------------------------------------------|
D|----------------------------------------------------|
A|----------------------------------------------------|
E|----------------------------------------------------|

E|-----~----------15-16-18-b20~-----------------------|
B|-------15-16-18-------------------------------------|
G|-15-17----------------------------------------------|
D|----------------------------------------------------|
A|----------------------------------------------------|
E|----------------------------------------------------|

E|----------------------------------------------------|
B|-15-16-13--15-16-13--15-16-b18~---------------------|
G|----------------------------------------------------|
D|----------------------------------------------------|
A|----------------------------------------------------|
E|----------------------------------------------------|

E|------------13--------------------------------------|
B|-----------------------14--14-14-14\----------------|
G|-10-12-13~-------13~-----------------------6h7p6\2--|
D|----------------------------------------------------|
A|----------------------------------------------------|
E|----------------------------------------------------|

Clipes