Brighton Rock

Queen

B
234
X24442
C#
234
X46664
E
123
022100
F#
234
244322
Tom: G
#1t1#  9"
#1t2#|--------------------|
|--------------------|
|-16-----------------|
|-16-----------------|
|-16-----------------|
|-14-x-x-x-x-x-x...--|#/1t2##/1t1#

#2t1# 14"
#2t2#|-------------------------------------|-------------------------------------|
|-------------------------------------|-------------------------------------|
|---17----17--x-17--x-17----17----17--|-x-17----17--x-17--x-17--x-17--x-17--|
|---17----17--x-17--x-17----17----17--|-x-17----17--x-17--x-17--x-17--x-17--|
|---17----17--x-17--x-17----17----17--|-x-17----17--x-17--x-17--x-17--x-17--|
|---15----15--x-15--x-15----15----15--|-x-15----15--x-15--x-15--x-15--x-15--|#/2t2##/2t1#

#3t1##3t2#|---------------------------------------------------------------------------|
|---------------------------------------------------------------------------|
|-x-17--x-17--x-17--x-17--x-17--x-17-----------17---------------------------|
|-x-17--x-17--x-17--x-17--x-17--x-17-----------17---------------------------|
|-x-17--x-17--x-17--x-17--x-17--x-17-----------17---------------------------|
|-x-15--x-15--x-15--x-15--x-15--x-15-x-x-...-x-15-x-........slide down to 1-|#/3t2##/3t1#

#4t1##4t2#|----------------------------------------|
|-----------------9------------11--9-11--|
|----------------10------------11--9-11--|
|-----11-11-11---11---x-x-11---11--9-11--|
|-x-x-11-11-11---11---x-x--9----9--9--9--|
|sl.up-9--9--9----9---x-x----------------|#/4t2##/4t1#

#5t1##5t2#|------------------------------------|
|------------------9---9-11-11-9-11--|
|-----------------10---9-11-11-9-11--|
|-11-9------------11---9-11-11-9-11--|
|--9-9-11-11-11---11---9--9--9-9--9--|
|--9-9--9--9--9----9-----------------|#/5t2##/5t1#

#6t1##6t2#|-----------------------------------------|
|-----------------9----9-11-11-x-11-11-11-|
|----------------10----9-11-11-x-11-11-11-|
|-x-x------------11----9-11-11-x-11-11-11-|
|-x-x-11-11-11---11----9--9--9-x--9--9--9-|
|-x-x--9--9--9----9-----------------------|#/6t2##/6t1#

B E B E B E F#
B E B E B E F#

#7t1##7t2#|-----------------------------------|
|-----------------------------------|
|---------9---6---6-------6\-4-9-\/-|
|-------7-9---6---6---6---6\-4-9-\/-|
|-------7-7---6---4---3------2-7-\/-|
|-5-------0--------------------0----|#/7t2##/7t1#

C# F# C# F#
B E B E B E F#
B E B E B E F#

#8t1##8t2#|---------------------------------------|
|-------------------7b9--7b9------------|
|---------9----9\6------------6\-4--9-\-|
|---------9-------------------6\-4--9-\-|
|---------7-------------------4\-2--7-\-|
|-5-------0-------------------------0---|#/8t2##/8t1#

#9t1##9t2#|----------0------------------2--2--0----------2----2-|
|----------0------2-----2--0--2--2--0-----5----2----2-|
|-6---6-4--1------2-----2--1--2--2--1-----6----3----3-|
|-6---6-4--2------2-----2--2--2--2--2-----6----4----4-|
|-4---4-2--2------0-----------0--2--2-----4----4------|
|----------0---------------------0--0----------2------|#/9t2##/9t1#

#10t1##10t2#|----------------------------|----------------------|------|
|--4--4--4--4--4--4--4--4--2-|--2--2--2--2--2--2-0--|------|
|--4--4--4--4--4--4--4--4--2-|--2--2--2--2--2--2-1--|--0/--|
|--4--4--4--4--4--4--4--4--2-|--2--2--2--2--2--2-2--|--/0--|
|--2--2--2--2--2--2--2--2--0-|--0--0--0--0--0--0-2--|------|
|----------------------------|-------------------0--|------|#/10t2##/10t1#

#11t1##11t2#|------------------------------|
|--2--2--2--2--2--2--2--2-3----|
|--2--2--2--2--2--2--2--2-4----|
|--2--2--2--2--2--2--2--2-5----|
|--0--0--0--0--0--0--0--0-5----|
|-------------------------3----|#/11t2##/11t1#

#12t1##12t2#|-------------------------------------------------------|
|-----------------------------------------3-0---2---0---|
|-2b4-r2p0h2p0h2p0------------------0-2---2-1---2---1---|
|-----------------2p0---------------0-2---2-2---2---2---|
|--------------------2p0------------0-0---0-2---0---2---|
|-----------------------3b-3b----0----------0---0---0---|#/12t2##/12t1#

#13t1##13t2#|---------12---------------------------------------------|
|-15b17------15-12-15---12-11-12-11----------------12b---|
|-----------------------------------14-12-14-12----12b---|
|-----------------------------------------------14-------|
|--------------------------------------------------------|
|--------------------------------------------------------|#/13t2##/13t1#

#14t1##14t2#|---------------------------------------------------------------------|
|---------------------------------------------------------------------|
|----------12b--12----------------------------------7--7--------------|
|-14-12----12b--12---------------------------6------5--5--------------|
|-------14---------14--13--12--11--12--------7------7--7--------------|
|--------------------------------------000---0----0-------------------|#/14t2##/14t1#

#15t1##15t2#|-------12-----------------------------------------------|
|-15b17----15-12-17r15--12-11-12-11----------------12b---|
|-----------------------------------14-12-14-12----12b---|
|-----------------------------------------------14-------|
|--------------------------------------------------------|
|--------------------------------------------------------|#/15t2##/15t1#

#16t1##16t2#|----------------------------------------------------------------------------|
|-----------------------------------8---10-8--8-----15---15b17-----3---------|
|----------12b----------------------9---10-8--9-----14---14b14-----4---------|
|-14-12----12b---------------------10--------10------------------5-5---------|
|-------14-----14--13--12--9-------10--------10--------------------5---------|
|----------------------------12\----8---------8--------------------0---------|#/16t2##/16t1#

#17t1##17t2#|-------------------------------------------------------------|
|-------------------------------------------------------------|
|-2b4---4r2--0h2p0-----------------------------7---7----7\4---|
|------------------2-0---------------------5-7-7---7----7\4---|
|----------------------2-1-0---------------5-7-7---7----7\4---|
|----------------------------3-0----0--0---5-5-5---5----------|#/17t2##/17t1#

#18t1##18t2#|----------------------------------------------------------|
|----------------------------------------------------------|
|----------------------------------------------------------|
|----------------------------------------------------------|
|-7-7-7-x-5-5-5-x--4-4-4-4-3-3-3-3-2-2-2-2-1-1-1-1-0-0-0-0-|
|----------------------------------------------------------|#/18t2##/18t1#

                                                            echo on
                                                                  >
#19t1##19t2#|---------|----------------------|------|---------------------------|
|---------|--2--2--2--2--2--2-0--|------|--2--2--2--2--2--2--2--2-3-|
|---------|--2--2--2--2--2--2-1--|--0/--|--2--2--2--2--2--2--2--2-4-|
|---------|--2--2--2--2--2--2-2--|--/0--|--2--2--2--2--2--2--2--2-5-|
|---------|--0--0--0--0--0--0-2--|------|--0--0--0--0--0--0--0--0-5-|
|-3--000--|-------------------0--|------|-------------------------3-|#/19t2##/19t1#


E-|-0--trem down to F# - release -|

#20t1##20t2#|----------|---------|---------|---------|---------|
|----------|---------|---------|---------|---------|
|----------|---------|---------|---------|---------|
|----------|---------|---------|---------|---------|
|----------|---------|---------|---------|---------|
|-h2-2-2-2-|-2-2-2-2-|-2-2-2-2-|-2-2-2-2-|-2-2-2-2-|#/20t2##/20t1#

#21t1##21t2#|-------------------------------------------------------------------|
|-------------------------------------------------------------------|
|-----------2-------------2-------------2-------------2-------------|
|-4-----2-4---2---4-------2-----4-------2-----4-------2-----4-------|
|-------------------------------------------------------------------|
|---2-2---------2---2-2-2---2-2---2-2-2---2-2---2-2-2---2-2---2-2-2-|#/21t2##/21t1#


#22t1##22t2#|---------|---------|-----------|---------|
|---------|---------|-----------|---------|
|---------|---------|-5r4-2-----|---------|
|---------|---------|-------4---|-2---2-4-|
|---------|---------|---------4-|---4-----|
|-2-2-2-2-|-2-2-222-|-----------|---------|#/22t2##/22t1#

#23t1##23t2#|---------|---------|------------|---------|
|---------|---------|-5p2--------|---------|
|---------|---------|----4-2b3---|---------|
|---------|---------|----------4-|---------|
|---------|---------|------------|---------|
|-2-2-2-2-|-2-2-222-|------------|---------|#/23t2##/23t1#

#24t1##24t2#|---------|---------|------------|----------|
|---------|---------|-5p2--------|----------|
|---------|---------|----4-2b3---|----------|
|---------|---------|----------4-|-4p2--2-4-|
|---------|---------|------------|----4-----|
|22-222---|---------|------------|----------|#/24t2##/24t1#

#25t1##25t2#|---------|---------------------------------|
|---------|---------------------------------|
|---------|-4p2--2--------------------------|
|---------|----4---4p2--------4---4---------|
|---------|-----------4-3-2-0---------------|
|-2-------|---------------------2---2-------|#/25t2##/25t1#

#26t1##26t2#|--------------|-----------|-----------|-----------|
|-10p9---------|-5p4-------|-1p0-------|-----------|
|-----11---11--|----6---6--|----2---2--|-4p2-------|
|--------------|-----------|-----------|----4---4--|
|--------------|-----------|-----------|-----------|
|--------------|-----------|-----------|-----------|#/26t2##/26t1#

#27t1##27t2#|-----------|-----------|---------|---------|
|-----------|-----------|---------|---------|
|-----------|-----------|---------|---------|
|-4p2-------|-----------|---------|-4---4---|
|----4---4--|-4p2-------|---------|---------|
|-----------|----4---5--|-5-4-2-2-|---------|#/27t2##/27t1#


#28t1##28t2#|---------|---------|-------2-|-4-5-4-2-|---------|------------------|
|---------|---------|---2-5---|---------|-5-2-----|------------------|
|---------|-----1-2-|-4-------|---------|-----5-4-|-2b3--------------|
|---------|-2-4-----|---------|---------|---------|-----4-2----------|
|-4-0-2-4-|---------|---------|---------|---------|----------4-3-2-0-|
|---------|---------|---------|---------|---------|------------------|#/28t2##/28t1#


#29t1##29t2#|---------|---------|-------------------------------------4-----5-----|
|---------|---------|-------------2-----4-----5-----7-----------------|
|---------|---------|-2-----4-----------------------------------------|
|---------|---------|---------------------4-4---4-4---4-4---4-4---4-4-|
|---------|---------|-------------------------------------------------|
|-2-2-2-2-|-22222-2-|---2-2---2-2---2-2-------------------------------|#/29t2##/29t1#

#30t1##30t2#|-4-------------------------------------------------------------|
|-------7-----5-----4-----2-------------------------------------|
|-------------------------------4-------2-----1-----------------|
|---4-4---4-4---4-4---4-4---------4!------1-4-------4-----2-----|
|---------------------------------------------------------------|
|-------------------------------------------------2---2-2---2-2-|#/30t2##/30t1#

#31t1##31t2#|-----------------------------------------|
|-----------------------------------------|
|-----------------------------------------|
|-------------------------4---4-4-4-4-4-4-|
|-4-----2-----------------4---4-4-4-4-4-4-|
|---2-2---2-2-5-0-0-4-0-0-2---2-2-2-2-2-2-|#/31t2##/31t1#

#32t1##32t2#|---------------|-----------|-----------|---------|---------|---------|
|---------------|-----------|-----------|-2-------|---------|---------|
|---------------|-----------|-4p2-------|---4-2-0-|---------|---------|
|-2-----2-------|-4p2-------|-----4-2-0-|---------|-4-2-----|---------|
|---------4-2-0-|-----4-2-0-|-----------|---------|-----4-2-|-4-2-0---|
|---------------|-----------|-----------|---------|---------|-------3-|#/32t2##/32t1#

#33t1#fade in fade out volume control
#33t2#|-----------2-----------------2---------------|
|-----------3-----------------3---------------|
|-----------2-----------------2---------------|
|-4---------0--------4--------0--------4------|
|-4---------0--------4--------0--------4------|
|-2------------------2-----------------2------|#/33t2##/33t1#


5'45"
 f.i.
#34t1##34t2#|-------7-------------------|--------|--------|--------|--------|--------|
|-------10------10----------|--------|--------|--------|--------|--------|
|-------7-----------7-------|--------|--------|--------|--------|--------|
|-------7--------------7----|--------|--------|--------|--------|--------|
|-------7-------------------|-7------|-7------|-7------|-7------|-7------|
|-0-------------------------|-----0--|-----0--|-----0--|-----0--|-----0--|#/34t2##/34t1#

#35t1##35t2#|---------|--------|--------|--------|-------|-------|
|---------|--------|--------|--------|-------|-------|
|---------|-9------|-9------|-9------|-------|-------|
|-------9-|-----9--|-----9--|-----9--|-------|-------|
|-7-------|--------|--------|--------|-------|-------|
|-----0---|--------|--------|--------|-------|-------|#/35t2##/35t1#

#36t1##36t2#|--------|------|-7--------|--------|--------|----------|--------|---------|
|--------|------|-------10-|-8---7--|--------|----------|--------|---------|
|--------|------|----------|--------|-9---7--|----------|-----9--|-7-------|
|--------|-7----|----------|--------|--------|-9-7------|--------|-----7-9-|
|-----7--|------|----------|--------|--------|-----10-9-|-7------|---------|
|-0------|------|----------|--------|--------|----------|--------|---------|#/36t2##/36t1#

#37t1##37t2#|--------|------|-7--------|--------|--------|----------|--------|------|
|--------|------|-------10-|-8---7--|--------|----------|--------|------|
|-7---9--|-9----|----------|--------|--------|----------|--------|-7----|
|---9----|------|----------|--------|-----7--|-9-7------|-----7--|------|
|--------|------|----------|--------|--------|-----10-9-|-7------|------|
|--------|------|----------|--------|--------|----------|--------|------|#/37t2##/37t1#

#38t1##38t2#|---------|-----|----------|---------|-------10/12-|-12---|-12-14-15-14-12----|
|---------|-----|----------|-----7-8-|-10-12-------|------|----------------15-|
|-7-------|-----|----------|-7-9-----|-------------|------|-------------------|
|---9-7---|-----|------7-9-|---------|-------------|------|-------------------|
|------10-|-7---|-7-10-----|---------|-------------|------|-------------------|
|---------|-----|----------|---------|-------------|------|-------------------|#/38t2##/38t1#

#39t1##39t2#|----------|----------|------------|------------|---------|--------|
|-12-------|----------|------------|------------|---------|--------|
|------14--|-12---11--|------------|------------|---------|--------|
|----------|----------|-14---12-14-|------------|---------|--------|
|----------|----------|------------|-14---12-14-|-10---9--|-7---5--|
|----------|----------|------------|------------|---------|--------|#/39t2##/39t1#

#40t1##40t2#|----|---------|----------|------|--------|----------|-----------|-12---12--|
|----|---------|----------|------|--------|----------|-------12--|----------|
|----|---------|----------|------|-9---9--|-9/11-13--|-13/14-----|----------|
|----|---------|-------9--|-9----|--------|----------|-----------|----------|
|-7--|-7/9-11--|-11-12----|------|--------|----------|-----------|----------|
|----|---------|----------|------|--------|----------|-----------|----------|#/40t2##/40t1#

#41t1##41t2#|-16--r1412--|-12-p11----|-----------|-----------|-------------------|
|------------|-------14--|-14--12----|-----------|-------------------|
|------------|-----------|-------14--|-14--1311--|----9--8--6--4--2--|
|------------|-----------|-----------|-----------|-------------------|
|------------|-----------|-----------|-----------|-------------------|
|------------|-----------|-----------|-----------|-------------------|#/41t2##/41t1#

#42t1##42t2#|---------------------------|---------|------|------|------|------|
|---------------------------|---------|------|------|------|------|
|-x-------------------------|---------|--0/--|--0/--|--0/--|--0/--|
|----x--x--x----------------|---------|--/0--|--/0--|--/0--|--/0--|
|-------------x--2--0-------|---------|------|------|------|------|
|----------------------3--2-|-0-0-0-0-|------|------|------|------|#/42t2##/42t1#

#43t1##43t2#|---------------------|---------|---------|-----------------------------------|
|---------------------|---------|---------|-----------------------------------|
|---------------------|---------|---------|-----------------------------------|
|-------------5-------|---------|---------|-------------5-------------5-------|
|---------5-7---7-----|---------|---------|---------5-7---7-7-7-7-7-7---7-7-7-|
|-0-3-5-7---------0-0-|-0-0-0-0-|-0-0-0-0-|-003-5-7---------------------------|#/43t2##/43t1#

#44t1##44t2#|------------------------------------------------------------|
|------------------------------------------------------------|
|---------------5--------------------------------------------|
|---5-----5-----5-----5-----------12----12-14-14-14-14-14-14-|
|-7---7-7---7-7---7-7---7-7-12/14----14----------------------|
|------------------------------------------------------------|#/44t2##/44t1#

#45t1##45t2#|----------------|------|------|----------------|------|------|---------------|
|----------------|------|------|----------------|------|------|---------------|
|-12-------------|--0/--|--0/--|-12-13----------|--0/--|--0/--|-12------------|
|----14-12---14--|--/0--|--/0--|-------12---14--|--/0--|--/0--|------14---12--|
|----------------|------|------|----------------|------|------|---------------|
|----------------|------|------|----------------|------|------|---------------|#/45t2##/45t1#

#46t1##46t2#|-----------------------------------------------12-14-15-14-12----12----------|
|-----------------------------------------12-15----------------15----15-12----|
|-12------------12------------------12-14----------------------------------14-|
|----14-12--14-----12-14-12-14-12-14------------------------------------------|
|-----------------------------------------------------------------------------|
|-----------------------------------------------------------------------------|#/46t2##/46t1#

#47t1##47t2#|----------------------------------------------------------------------------|
|----------------------------------------------------------------------------|
|-12-14-12-11-12-11----------------------------------------------------------|
|-------------------14-12-14-12----------------------------------------------|
|-------------------------------14-12----------------------------------------|
|-------------------------------------15-14-15-14-12-10-12-10-10-12-12-10-10-|#/47t2##/47t1#

#48t1##48t2#|-------------------------------------------------------------------------|
|---------------------9-------9-------9-------9-------9-------9-------9---|
|-------------9-------9-------9-------9-------9-------9-------9-------9---|
|-----9-------9-------9-------9-------9-------9-------9-------9-------9---|
|-7-7-7-7-7-7-7-7-7-7-7-7-7-7-7-7-7-7-7-7-7-7-7-------7-------7-------7---|
|-------------------------------------------------------------------------|#/48t2##/48t1#

#49t1##49t2#|-------------------------------------|-----------------------------------|
|-9-----------------------------------|--------------------------------9--|
|-9-------7-------7-------7-------7---|----------------------------9------|
|-9-------7-------7-------7-------7---|-----------------6-\4/--9----------|
|-7-------7-------7-------7-------7---|-------------7---------------------|
|---------5-------5-------5-------5---|-0---0---7-------------------------|#/49t2##/49t1#

#50t1##50t2#|--------------14b16---14-12----------------------------------------------|
|-12---15b17-------------------14-12--------------------------------------|
|--------------------------------------14-13---11-9-----------------------|
|-----------------------------------------------------11-9----------------|
|------------------------------------------------------------12-11---9-7--|
|-------------------------------------------------------------------------|#/50t2##/50t1#

#51t1##51t2#|-------------|-------------------------------------------------------------|
|-------------|----------------------------------------------------12-12----|
|---------4---|--------------------------------------------12------------12-|
|---------5---|---------------------5---5-5/9-9-9-12-12-12----12-12---------|
|---------5---|---------------5-5-5---5-------------------------------------|
|-9-7---5-3---|-3-3-3-3/7-7-7-----------------------------------------------|#/51t2##/51t1#

#52t1##52t2#|-------------------12-------------------------------------------------------|
|-15-12-15-12-15-15----15-13-12----------------------------------------------|
|-------------------------------14-12----12----------------------------------|
|-------------------------------------14----14-12----------------------------|
|-------------------------------------------------15-14-15-14-12----12-------|
|----------------------------------------------------------------15----15-12-|#/52t2##/52t1#

#53t1##53t2#|-------------------------------------|--------------------------------------|
|-------------------------------------|--------------------------------------|
|-------------------------------------|-------------4---4---4---4---4---4----|
|-------------------------------------|---------5---5---5---5---5---5---5----|
|-------------------------------------|-5---5---5---5---5---5---5---5---5----|
|-15-12-10-12-10-8-10-8-7-8-7-5-7-5-3-|-3---3---3---3---3---3---3---3---3----|#/53t2##/53t1#

#54t1##54t2#|-17b18---18r17p15--------------|-17b18---rp15-----------|------|
|-----------------17---17p15----|-------------17--p15----|------|
|---------------------------17--|--------------------17--|--0/--|
|-------------------------------|------------------------|--/0--|
|-------------------------------|------------------------|------|
|-------------------------------|------------------------|------|#/54t2##/54t1#

#55t1##55t2#|----------------------------------------------------------------------|
|----------------------------------------------------------------------|
|-15---14-12---10------------------------------------------------------|
|-----------------12---10-8---7-5-------------------------------3------|
|-----------------------------------8-6---5-3-------------------3------|
|-----------------------------------------------6-5---3-1---3---1------|#/55t2##/55t1#

#56t1##56t2#|-----------------||-----------------||-------------------------------------|
|-----------------||-----------------||-------------------------------------|
|-----------------||-----------------||-------------------------------------|
|---------9-----7-||---------9-----7-||---------9-----7-------------9---9-7-|
|-----------------||-----------------||-----------------7h9-7---------------|
|-x-7---7-----7---||-7-7---7-----7---||-5-7---7-----7---------7---7---------|#/56t2##/56t1#

#57t1##57t2#|---------------------------------------------------------------|
|-10b12--10b12---------------------------------------10b12---10-|
|---------------------------------------------------------------|
|----------------9---9-7---7----------------9-------------------|
|----------------------------7h9-9------------------------------|
|-------------------------------------7---7-----7-7-------------|#/57t2##/57t1#

#58t1##58t2#|--------------------------------------------------------------------|
|--------------------------------------------------------------------|
|-11---11-9---9-7---7------------------------------------------------|
|---------------------9---9-7---7------------------------------------|
|---------------------------------9---9-7---7------------------------|
|---------------------------------------------10---10-9---9-7---7-5--|#/58t2##/58t1#

#59t1##59t2#|--------------------------------------------------------|
|--------------------------------------------------------|
|--------------------------------------------------------|
|---------9-----7---7-------------9-----7---------7------|
|---------------------7h9-9-------------------7h9--------|
|-5-7---7-----7-------------7---7-----7-----7---------7--|#/59t2##/59t1#

#60t1##60t2#|------------|--------|------------------------5---5---5---5---5---5---5---5--|
|------------|--------|--------7-------7-------5-7-5---5-7-5---5-7-5---5-7-5--|
|------------|---0/---|--------7-------7-------6-7-6---6-7-6---6-7-6---6-7-6--|
|---9-----7--|---/0---|---9----7-------7-------7-7-7---7-7-7---7-7-7---7-7-7--|
|---9-----7--|--------|---9----7-------7-------7-7-7---7-7-7---7-7-7---7-7-7--|
|-7-----7----|10 times|-7------5-------5-------5-5-5---5-5-5---5-5-5---5-5-5--|#/60t2##/60t1#

#61t1##61t2#|-5------------------------------------------------------------|
|-5------------------------------------------------------------|
|-6-------------------7-7--------------------------------------|
|-7-------9-------7---7-7-------------------------9---9-7---9--|
|-7-------7-------5-------------------7------------------------|
|-5----------------------/7-7-7-7-7-7-----7-7-7-7--------------|#/61t2##/61t1#

#62t1##62t2#|-------------------------------------------------------10p7-----------|
|--------------------------------10p7------------------------10-7------|
|---------9---9-7---------------------9-7---------------------------9--|
|-----------8-------------------------------9--------------------------|
|----------------------------------------------------------------------|
|-7-7---7------------7---7-7---7----------------7-7---7----------------|#/62t2##/62t1#

#63t1##63t2#|-------------------------------------------------------------------|
|----------------------------------------------10p7----7------------|
|---------9p7---7-----------------------------------10-----9p7---7--|
|-------------9-----9-----7------------------------------------9----|
|---------------------9-9-----9p7-----------------------------------|
|-0-7---7-------------------------7-7---7-10------------------------|#/63t2##/63t1#

#64t1##64t2#|--------------------|--------------------------------------------------------|
|--------------------|--------------------------------------------------------|
|--------------------|--------------------------------------------------------|
|-9p7---7------------|--------------------------------------------------------|
|-----9-----9p7------|---------------------------------6-6-6-6-6-7-9-9-9-9-9-9|
|---------------10-7-|-7-7-7-7-7-7-7-7-7-7-7-7-7-7-7-7------------------------|#/64t2##/64t1#

#65t1##65t2#|---------------------------------------------------------------------|
|---------------------------------------------------------------------|
|---------------------------------------------------16-16-16-16-16-16-|
|-9-9-9-9-9-9-9/13-13-13-13-13-13-16-16-16-16-16-16-------------------|
|---------------------------------------------------------------------|
|---------------------------------------------------------------------|#/65t2##/65t1#

#66t1#                                      with the same finger
#66t2#|-------------------14-14-14-14-14---17b19_________let ring__________________|
|-16-16-16-16-16-16-----------------(17b18)---x-x-x-x-x-x-x-x......slowing down
|----------------------------------------------------------------------------|
|----------------------------------------------------------------------------|
|----------------------------------------------------------------------------|
|----------------------------------------------------------------------------|#/66t2##/66t1#

#67t1##67t2#|---------18b19--r1816-------------14-------------12-------------10-----------|
|------------------------17-------------15-------------13-------------11------|
|-16--16----------------------16-------------14-------------12-------------10-|
|-----------------------------------------------------------------------------|
|-----------------------------------------------------------------------------|
|-----------------------------------------------------------------------------|#/67t2##/67t1#

#68t1##68t2#|-8-------------8-----------8-----------6-------------------------------------|
|-----10------------8-----------8-----------8--6------------------------------|
|----------10-----------9-----------8-------------8--7------------------------|
|-------------------------------------------------------10--8-----------------|
|--------------------------------------------------------------10--8----------|
|---------------------------------------------------------------------11--10--|#/68t2##/68t1#

#69t1##69t2#|------|-------------|-------|---------||
|------|-------------|-------|-6-------||
|------|-------------|---0/--|-7-------||
|------|-10-10-10-10-|---/0--|-8-------||
|------|-10-10-10-10-|-------|-8-------||
|-8--6-|--8--8--8--8-|4 times|-6-------||#/69t2##/69t1#

#70t1##70t2#|--------------|--8---------|-------|
|--8---8--6--6-|--8---10--8-|-------|
|--9---9--7--7-|--9---10--9-|---0/--|
|-10--10--8--8-|-10---10-10-|---/0--|
|-10--10--8--8-|------------|-------|
|--8---8--6--6-|------------|3 times|#/70t2##/70t1#

#71t1##71t2#|-----------------------------------------------------------------------------|
|-------------------------------------------------12/13-13--15/17-17--/20--20-|
|-----------------------------------------12--12------------------------------|
|--------------------------9--10--12--14--------------------------------------|
|------------------10--10-----------------------------------------------------|
|-3/7-8--10/12-12-------------------------------------------------------------|#/71t2##/71t1#

#72t1##72t2#|-19b20-20-\-|-|-------|-3------|-------|---|
|------------|-|----5--|-3---5--|-------|\--|
|------------|-|-4--5--|-4---5--|---0/--|\--|
|------------|-|-------|-5---5--|---/0--|\--|
|------------|-|-------|--------|-------|---|
|------------|-|-------|--------|3 times|---|#/72t2##/72t1#

#73t1#11'02"
#73t2#|-------------------------------------------|-----------------------------|
|-------------------------------------------|-----------------------------|
|-------------------------------------777999|-12-12-12-12/14-14-14-12b----|
|----------------------------555777999------|-12-12-12-12/14-14-14-----14-|
|----------------------555777---------------|-----------------------------|
|-000000...000333555777---------------------|-----------------------------|#/73t2##/73t1#
                                                                       echo off
                                                                              <
#74t1##74t2#|-------------------------------------------------------------|-------|------|
|-----------14-12----14--------14--------12-12----14-12-12----|-15----|------|\|
|-14-12b----14-12----14-12b----14-12b----12-12-14-14-12-12-14-|-14b16-|--0/--|\|
|--------14-------14--------14--------14-------14----------14-|-------|--/0--|
|-------------------------------------------------------------|-------|------|
|-------------------------------------------------------------|-------|7 times#/74t2##/74t1#

C# F# C# C# C# F# C# F# 
B E B E B E F# 
B E B E B E F#

#75t1##75t2#|----------|----------------------------------------------12---12-------|
|----------|----------------------------------------------12---12---12\-|
|----------|--------------------------------------------------------12\-|
|----------|--7-----9-9-7---7-9-9-9-7---7-9-9-9-7-----9-----------------|
|----------|--7-----9-9-7---7-9-9-9-7---7-9-9-9-7-----9-----------------|
|-5----7---|-7----7-7-7-7---7-7-7-7-7---7-7-7-7-7---7-------------------|#/75t2##/75t1#

#76t1##76t2#|-----------------------------------------|
|--------------------------------2--------|
|----0-----0---------------------2--------|
|-0----0h2---2p0------(0)--------2--------|
|----------------2-0h2---2-0-----0--------|
|----------------------------3-0------3b--|#/76t2##/76t1#

#77t1##77t2#|------------------------------------|-----------------------------|
|---------------------------2--------|-----------------------------|
|-----0---------------------2--------|-------0---------------------|
|-2-----2p0-----------------2--------|-(0)h2---2p0-----------------|
|-----------2-2-0---2-0-----0--------|---------------0-2---2-0-----|
|-----------------3-----3-0------3b--|-------------------------3-0-|#/77t2##/77t1#

#78t1##78t2#|--------------------------------------|
|--------------------------------3-----|
|-2b3rp0-------------------------4-----|
|--------2-0---------------------5-----|
|------------2-1-0---------------5-----|
|------------------3-0-0-0-0-0-0-0-----|#/78t2##/78t1#

The echo:
middle > left echo > right echo
0.80...0.85 sec
#79t1##79t2#-----------------------------------------#/79t2##/79t1#
#80t1#Another Version:
#80t2#-----------------------------------------#/80t2##/80t1#

#81t1#1'47"
#81t2#|----------------------------------|
|----------------------------------|
|-2b4_r2p0-2p0---------------------|
|--------------2p0-2p0---------2---|
|----------------------2p0-----2---|
|--------------------------3b4-0---|#/81t2##/81t1#

#82t1#1'53" ,2'00"
#82t2#|---------12------------------12------------------------------------------------------------|
|-15b17------15p12-15---12-------------------------12b--------------------------------------|
|--------------------------15----15p14p12-14p12----12b--------------------------------------|
|-----------------------------------------------14--------14p12----12b----------------------|
|---------------------------------------------------------------14--------14-13--12--10-----|
|---------------------------------------------------------------------------------------12--|#/82t2##/82t1#

#83t1#2'38"
#83t2#|--------------------------------------------------------------|
|--------------------------------------------------------------|
|------------9-99----9-9---------------------------------------|
|------------7-779---7-7---------------------------------------|
|------------0-007---0-0---------------------------------------|
|-0\\tr//0-------0-------0-000-0000000-0000000-0000000-0000000-|#/83t2##/83t1#

#84t1##84t2#|---------------------------|
|---------------------------|
|---------------------------|
|----------------------5b---|
|-------------5-55555h7---5-|
|-000x00003/7---------------|#/84t2##/84t1#

#85t1##85t2#|-----------------------------------------------------|
|-----------------------------------------------------|
|-----------------------------------------------------|
|-------------5---------------b6----57p5------7p5-----|
|-----5-5-5557--7-----5-5-5557---7-7----7-7-7----7-7--|
|-057-------------5557--------------------------------|#/85t2##/85t1#

#86t1##86t2#|----------------------------------------------------------------------|
|------------------------(12b)-----------------------------------------|
|-------------------------12b----------------------------12b-----------|
|-----------12-1212121214-----14-1414-----12-12121212h14-----14--1414--|
|-12h1412h14-------------------------12p14-----------------------------|
|----------------------------------------------------------------------|#/86t2##/86t1#

#87t1##87t2#|--------------------------------------|
|--------------------------------------|
|--------------------12b-12b-121212b14-|
|------12-1212121214-------------------|
|-12h14--------------------------------|
|--------------------------------------|#/87t2##/87t1#

#88t1##88t2#|-------------------------------------------------------------------------|
|-------12-------12------(12)------12-------12----14----12----14----12----|
|-------12-12----12-------12-------12-------12----14----12-14----12-12-14-|
|-14-14-------14----14-14----14-14----14-14----14----------14----12----14-|
|----------------------------------------------------12-------------------|
|-------------------------------------------------------------------------|#/88t2##/88t1#

#89t1##89t2#|-----------------------------------------------------------------|
|-14----12b-------------------------------------------------------|
|-------12b-------------------------------------------------------|
|----14-----1412---12---------------------------------------------|
|----12---------14----14-12-10-12-10-1210---10--------------------|
|----------------------------------------12----12-10-9-8-7-6-5-3--|#/89t2##/89t1#

#90t1##90t2#|----------------------------------------------------------------------|
|----------------------------------------------------------------------|
|----------------------------------------------------------------------|
|-------------------------------------------~~~~tr~~~~-----------------|
|------------------7------------------------7---7---7-----------////-2-|
|-0-00000-00000000-5--3b-p0-0-000-000-0000005---5---5--5\tr\\---////-0-|#/90t2##/90t1#

#91t1##91t2#|-----------------------------------------------------------------------------------------------|
|-------------------------------------------------------------------------------12121212151515--|
|--------------------------------------------------------7777999912121212141414-----------------|
|--------------------------------------------5555777-999----------------------------------------|
|------------------------------------5555777----------------------------------------------------|
|-0000-----00000-----000033335555777------------------------------------------------------------|#/91t2##/91t1#

#92t1##92t2#|-1212--------------------------------------------------------------------------------------|
|-----121515b17-b17-b17-b17-b17vv------b17_r15p1215-12--------------------------------------|
|------------------------------------------------------15p14p12-14p12---12------------------|
|--------------------------------------------------------------------14----14p12------------|
|-------------------------------------------------------------------------------14-13-12-10-|
|-------------------------------------------------------------------------------------------|#/92t2##/92t1#

#93t1##93t2#|-------------|-------------|----|-----------------------------------------------------------|
|-------------|-------------|----|-----------------------------------------------------------|
|-------------|-------------|-0/-|-----------------------------------------------------------|
|-------------|-------------|-/0-|-----------------------------------------------------------|
|-------------|-10----------|----|-----------------------------------------------------------|
|-12-12-10-12-|----12-10-12-| 5X |-10-12-10-12-10-12-9-12-9-12-9-12-9-12-8-12-8-12-8-12-8-12-|#/93t2##/93t1#

#94t1##94t2#|-------------------------------------------------------------|
|-------------------------------------------------------------|
|-------------------------------------------------------------|
|-------------------------------------------------------------|
|-------------------------------------------------------------|
|-7-12-7-12-7-12-7-12-6-7-6-7-6-7-6-7-6-7-6-7-6-7-6-7-6vvv----|#/94t2##/94t1#

#95t1##95t2#|------------------------------------------------------------17b19---1715--------------------------------------|
|------x(0)-15b17---15p12---------------------------------------------------1715---12--------------------------|
|------xxx---------------15p14p12-----------------------9----------------------------14---12-------------------|
|--------------------------------14p12------------------9-----------------------------------14---12------------|
|-------------------------------------14131210----------7------------------------------------------14---1210---|
|-<<5<3<0-------------------------------------12p10-----0------------------------------------------------------|#/95t2##/95t1#

#96t1##96t2#|-----------------------|---------------------------------------------------------------------------------|
|-------------------3---|---------------------------------------------------------------------------------|
|-------------------2---|---------------------------------------------------------------------------12-12-|
|-------------------0---|-------------5------------------5----------------5-5/-------12-12121212h14-------|
|------------------x----|----*-5-555h7--7-77---5-55555h7---7-77775-5-555h7------12------------------------|
|-1210---75---30---x----|-5h7---------------5h7-----------------------------------14----------------------|#/96t2##/96t1#

#97t1##97t2#|---------------------------------------------------------------------------------------------------|
|---------------------------------------------------------------------------------------------------|
|---------------------12-1212-------------------------12--------------------------------12----------|
|-1412-----12-12-x-14---------12-----------12h14p12h14---14-12-12------------12h14p12h14---14-12-12-|
|-----12h14-------x-------------12h14p12h14-----------------------12h14p12h14-----------------------|
|---------------------------------------------------------------------------------------------------|#/97t2##/97t1#

#98t1##98t2#|----------------------------------------------------------------------------------------|
|-----------------------------------12-------12-------12-------12-------15------15---...-|
|-----------------------12----------12-------12(12)---12-------12(12)---14b16---14b16...-|
|------------12h14p12h14---14-14-14----14-14----14-14----14-14----14-14------------------|
|-12h14p12h14----------------------------------------------------------------------------|
|----------------------------------------------------------------------------------------|#/98t2##/98t1#

#99t1#4'29"
#99t2#|------------------------------------------------------9--------9---------------------------|
|------------------------------------------------12b14---12p9-------------------------------|
|-11b13vv---11b13_r11p9vv------------9b----------------------12---12p11p911p9---------------|
|---------------------------1111p9------111111-------------------------------11p9-----------|
|---------------------------------11---------------------------------------------1110979p7--|
|-----------------------------------------------------------------------------------------9-|#/99t2##/99t1#

#100t1#4'58"
#100t2#|-------------------------|----|---------------------------------------|
|-------------------------|----|---------------------------------------|
|----0--------------------|-0/-|-0/--------2b3r2p0-----------------7---|
|-0h2-2p0-----0-----2-----|-/0-|-/0---------------20---------------6---|
|--------2-0h2-2p0--0-----|----|--------------------210------------7---|
|-----------------30----3-|----|----..3p0--------------300000000h5-0---|#/100t2##/100t1#

#101t1##101t2#-----------------------------------#/101t2##/101t1#
#102t1#Third Version:
#102t2#-----------------------------------#/102t2##/102t1#

Brighton Rock 
intro solo from Live At The Wembley 

#103t1##103t2#|----------------------------------------|                   |----------------|
|----------------------------------------|bass               |----------------|
|-9b11_r9p7-9-----9b11_r9p7--------------|-------------------|----------------|
|---------------------------9-7----------|--9-7---------___--|----------------|
|-------------------------------9-8-7\5b-|-----9-7-5-4-5p4-2-|-0h2-0----------|
|----------------------------------------|-------------------|-------2-1-0tr--|#/103t2##/103t1#

#104t1##104t2#|--------------------------------------------------------------|
|--------------------------------------------------------------|
|-------------7-9------------------7------------------------7b-|
|-----------------_______-----7-9----10b__12vr_10--7-8-9-------|
|-----0-2-2---5-7-7h8p7p5-7/9----------------------------------|
|-0-2----------------------------------------------------------|#/104t2##/104t1#

#105t1##105t2#|--------------------------------------------------------------------------|
|--------------------------------------------------------------------------|
|-9b11__r9p7-----9--7------------------------------------------------------|
|------------9---------9--7v--9----___-------------------------------------|
|----------------------------------9p7----7-5---7-5b---------5-7h8p7p5-7---|
|---------------------------------------------7------7-5-6-7---------------|#/105t2##/105t1#

#106t1##106t2#|-----------------------------------------------------------------------------|
|-----------------------------------------------------------------------------|
|-----7------7--6-----------7---6------------7--8--7--6-------------------7b--|
|-79---9v----------7-9-6------9----6-9-6---9-------------9--6--7--8--9v-------|
|-----------------------------------------------------------------------------|
|-----------------------------------------------------------------------------|#/106t2##/106t1#

#107t1##107t2#|---------------------------------------------------------------------------|
|-______---7-10-9-8-7-------------------------------------------------------|
|-11r9p7-9------------10-9-7------------------------------------------------|
|----------------------------9-7--------------------------------_______-----|
|--------------------------------9-8-7-5---7---5b-------------5-7h8p7p5-7---|
|----------------------------------------7---7-----7----5-6-7---------------|#/107t2##/107t1#

#108t1##108t2#|----------------------------------------------------|
|----------------------------------------------------|
|---------------------------------6-7-9-10-10b_11vv--|
|-----7-9---------------------7-9--------------------|
|-7-9-----------------5-7-8-9------------------------|
|---------7v----5-6-7--------------------------------|#/108t2##/108t1#
Composição: Colaboração e revisão: Taino Vieira