Dreamers Ball

Queen

A-
123
X02210
Adim
1234
5X454X
B-
234
X24432
B7
1234
X21202
D-
123
XX0231
D/B
1234
X20232
E-
12
022000
F#m
34
244222
F7
34
131211
G-
34
355333
Tom: G
                            From the album JAZZ   
                           written by  Brian May 
                                  (1978)

acoustic guitar:
(tune down 1/2 step)
  |     |     |     o     |     |     |     o     |     |     o   o |     |
#1t1##1t2#|-------------------------2-----2-----2-----2-----------------2---0-------|
|-------------2-----------3-----3-----3-----1-----2-----2-----3---3-------|
|-2-----------2-----2-----2-----2-----2-----2-----2-----2-----1---1-------|
|-2-----------2-----3-----0-----0-----0-----1-----2-----2-----2---2-------|
|-0---2-3---4-0-----4-----------------------0-----0-----0-----------------|
|-----------------------------------------------------------0-------------|#/1t2##/1t1#

#2t1#  |     |     |     o     |     |     |     o     |     |     |     o     |
#2t2#|-------------------------------------2-----1-----2-----2-----2-----------|
|-2-----2-----2-----2-----3-----3-----3-----3-----3-----3-----3-----1-----|
|-2-----1-----0-----0-----2-----2-----2-----1-----2-----2-----2-----2-----|
|-2-----2-----2-----3-----0---2-3---4-0-----0-----0-----0-----0-----1-----|
|-0-----0-----0-----4-----------------------------------------------0-----|
|-------------------------------------------------------------------------|#/2t2##/2t1#

#3t1#  |     |     o   o o     |     |     |     |     |     |     |   o |     |
#3t2#|-------------2---0-0---------------------------------------------0-------|
|-2-----2-----3---3-3-----2-----2-----2-----2-----------------------------|
|-2-----2-----1---1-1-----2-----2-----3-----3-----------------------------|
|-2-----2-----2---2-2-----2-----2-----2-----2-----------------------------|
|-0-----0-----------------0-----0-----4-----4-----------------------------|
|-------------------------------------3-----3-------4-2---1-0-------0---1-|#/3t2##/3t1#

#4t1#  o     |     |     |     |     |     |     |     |     o     o o   |     |
#4t2#|-------------------------------------------------------0-----0-0---------|
|-----3-------4-----3-----2-----------3-----4-----5-----5-----5-5---------|
|-----2-------2-----2-----2-----------4-----5-----6-----7-----7-7---------|
|-----0-------1-----0-----2-----------0-----7-----7-----6-----6-6---------|
|-------------3-----2-----0----/4-----5-----6-----7-----7-----7-7---------|
|-2-----2-----1-----0-----------------------------------0-----0-0---------|#/4t2##/4t1#

#5t1#  |     |     |     o     |     |     |     o     |     |     |     |     |
#5t2#|-------------------------2-----2-----2-----2-----------------0-----0-----|
|-------------------------3-----3-----3-----1-----2-----2-----3-----3-----|
|-2-----------2-----2-----2-----2-----2-----2-----2-----2-----1-----1-----|
|-2-----------2-----3-----0-----0-----0-----1-----2-----2-----2-----2-----|
|-0---2-3---4-0-----4-----------------------0-----0-----0-----------------|
|-------------------------------------------------------------------------|#/5t2##/5t1#

#6t1#  |     |     |     o     |     |     |     o     |     |     |     o     |
#6t2#|-------------------------2-----2-----2-----1-----2-----2-----2-----------|
|-2-----2-----2-----2-----3-----3-----3-----3-----3-----3-----3-----1-----|
|-2-----2-----2-----2-----2-----2-----2-----1-----2-----2-----2-----2-----|
|-2-----2-----2-----3-----0-----0-----0-----0-----0-----0-----0-----1-----|
|-0-----0-----0-----4-----------------------------------------------0-----|
|-------------------------------------------------------------------------|#/6t2##/6t1#

#7t1#  |     |     |     |     |     |     |     |     |     |   o |   o |     |
#7t2#|-------------0-----0---------------------------------------------0-------|
|-2-----2-----3-----3-----2-----2-----2-----2-----------------------------|
|-2-----2-----1-----1-----2-----2-----3-----3-----------------------------|
|-2-----2-----2-----2-----2-----2-----2-----2---------0-------------------|
|-0-----0-----------------0-----0-----4-----4-----------------------------|
|-------------------------------------3-----3-----4-----2-1-0-------0---1-|#/7t2##/7t1#

#8t1#  |     |     |     |     |     |     |     |     |     o     o   o |     |
#8t2#|-------------------------------------------------------0-----0---0-------|
|-----3-------4-----3-----2-----------3-----4-----5-----5-----5---5-------|
|-----2-------2-----2-----2-----------4-----5-----6-----7-----7---7-------|
|-----0-------1-----0-----2-----------0-----7-----7-----6-----6---6-------|
|-------------3-----2-----0----/4-----5-----6-----7-----7-----7---7-------|
|-2-----2-----1-----0-----------------------------------0-----0---0-------|#/8t2##/8t1#

#9t1#  |     |     |     |     |     |     |     |     |     |     |     |     |
#9t2#|-5-----5-----5-----5-----5-----5-----4-----4-----------------------------|
|-5-----5-----5-----5-----6-----6-----6-----6-----------------------------|
|-6-----6-----6-----6-----4-----4-----4-----4-----2-----2-----2-----2-----|
|-7-----7-----7-----7-----6-----6-----6-----6-----4-----4-----4-----4-----|
|-7-----7-----7-----7-----4-----4-----4-----4-----4-----4-----4-----4-----|
|-5-----5-----5-----5-----------------------------2-----2-----2-----2-----|#/9t2##/9t1#

#10t1#  |     |     |     |     |     |     |     |     |     |     |     |     |
#10t2#|-------------------------2-----2-----------------2-----2-----------------|
|-2-----3-----4-----2-----3-----3-----2-----2-----3-----3-----2-----2-----|
|-2-----2-----2-----2-----2-----2-----2-----2-----2-----2-----2-----2-----|
|-2-----0-----1-----2-----0-----0-----2-----2-----0-----0-----2-----2-----|
|-0-----2-----3-----4-----------------0-----0-----------------0-----0-----|
|-------------------------------------------------------------------------|#/10t2##/10t1#

#11t1#  |     |     |     |     |     |     |  o  |     |     |     |     |     |
#11t2#|-5-----5-----5-----5-----------------------------------------------------|
|-7-----7-----7-----7-----0----2----3----4--------2-----2-----6-----6-----|
|-8-----8-----8-----8-----1----2----4----5--------2-----2-----4-----4-----|
|-7-----7-----7-----7-----2-----------------------2-----2-----6-----6-----|
|-------------------------2-----------------------0-----0-----4-----4-----|
|-------------------------0-----------------------------------------------|#/11t2##/11t1#

#12t1#  |     |     |     |     |     |     |     |     |     |     o   o |     |
#12t2#|-2-----2-----2---2-2-----5-----5---------------------------------0-------|
|-3-----3-----1---1-1-----5-----5-----4-----2-----2-----2-----------------|
|-2-----2-----2---2-2-----6-----6-----2-----3-----2-----2-----0-----------|
|-0-----0-----1---1-1-----7-----7-----1-----0-----2-----2-----------------|
|-------------------------7-----7-----3-----2-----0-----0-----------------|
|-------------------------5-----5-----1-----0-----------------------------|#/12t2##/12t1#

#13t1#  |     |     |     o     |     |     |     o     |     |     o   o o     |
#13t2#|-------------------------2-----2-----2-----2---------------------0-0-----|
|-------------------------3-----3-----3-----1-----2-----2-----3-----------|
|-2-----------2-----2-----2-----2-----2-----2-----2-----2-----1-----------|
|-2-----------2-----3-----0-----0-----0-----1-----2-----2-----2-----------|
|-0---2-3---4-0-----4-----------------------0-----0-----0-----------------|
|-------------------------------------------------------------------------|#/13t2##/13t1#

#14t1#  |     |     |     o     |     |     |     o     |     |     |     o     |
#14t2#|-------------------------------------2-----1-----2-----2-----2-----------|
|-2-----2-----2-----2-----3-----3-----3-----3-----3-----3-----3-----1-----|
|-2-----2-----2-----2-----2-----2-----2-----1-----2-----2-----2-----2-----|
|-2-----2-----2-----3-----0---2-3---4-0-----0-----0-----0-----0-----1-----|
|-0-----0-----0-----4-----------------------------------------------0-----|
|-------------------------------------------------------------------------|#/14t2##/14t1#

#15t1#  |     |     |     |     |     |     |     |     |     |     |     |     |
#15t2#|-------------2-----2-----------------------------------------0---0-0-----|
|-2-----2-----3-----3-----2-----2-----2-----2-----------3-----3---3-3-----|
|-2-----2-----1-----1-----2-----2-----3-----3-----2-----1-----1---1-1-----|
|-2-----2-----2-----2-----2-----2-----2-----2-----2-----2-----2---2-2-----|
|-0-----0-----------------0-----0-----4-----4-----2-----------------------|
|-------------------------------------3-----3-----0---------------------0-|#/15t2##/15t1#

#16t1#  |     |     |     |     |     |     |     |     |     o     o   o |     |
#16t2#|-------------------------------------------------------0-----0---0-------|
|-3---3-------4-----3-----2-----------3-----4-----5-----5-----5---5-------|
|-2---2-------2-----2-----2-----------4-----5-----6-----7-----7---7-------|
|-0---0-------1-----0-----2-----------0-----7-----7-----6-----6---6-------|
|-0-----------3-----2-----0----/4-----5-----6-----7-----7-----7---7-------|
|-2-----2-----1-----0-----------------------------------0-----0---0-0---0-|#/16t2##/16t1#

#17t1#  |     |     |     |     |     |     |     |     |     |     |     |     |
#17t2#|-------------------------------------------------2-----4-----2-----2-----|
|-2-----2-----2-----2-----6-----6-----6-----6-----4-----4-----4-----2-----|
|-2-----2-----2-----2-----4-----4-----4-----4-----2-----2-----2-----2-----|
|-2-----2-----2-----2-----6-----6-----6-----6-----4-----4-----4-----4-----|
|-0-----0-----0-----0-----4-----4-----4-----4-----------------------------|
|-------------------------------------------------------------------------|#/17t2##/17t1#

#18t1#  |     |     |     |     |     |     |     |     |     |     |     |     |
#18t2#|-------------------------2-----2-----------------2-----2-----------------|
|-------------2-----2-----3-----3-----2-----2-----3-----3-----2-----2-----|
|-2-----2-----2-----2-----2-----2-----2-----2-----2-----2-----2-----2-----|
|-2-----2-----2-----3-----0-----0-----2-----2-----0-----0-----2-----2-----|
|-0-----0-----0-----4-----------------0-----0-----------------0-----0-----|
|-------------------------------------------------------------------------|#/18t2##/18t1#

#19t1#  |     |     |     |     |     |     |     |     |     |     |     |     |
#19t2#|-5-----5-----5-----5-----------------------------------------------------|
|-7-----7-----7-----7-----0----2--3------4--------2-----2-----6-----6-----|
|-8-----8-----8-----8-----1----2--4------5--------2-----2-----4-----4-----|
|-7-----7-----7-----7-----2-----------------------2-----2-----6-----6-----|
|-------------------------2-----------------------0-----0-----4-----4-----|
|-------------------------0-----------------------------------------------|#/19t2##/19t1#

#20t1#  |     |     |     |     |     |     |     |     |     |     |     |     |
#20t2#|-2-----2-----2---2-2-----5-----5-----0-----0-----5-----5-----0---0-------|
|-3-----3-----1---1-1-----5-----5-----5-----5-----5-----5-----5---5-------|
|-2-----2-----2---2-2-----6-----6-----7-----7-----6-----6-----7---7-------|
|-0-----0-----1---1-1-----7-----7-----6-----6-----7-----7-----6---6-------|
|-------------------------7-----7-----7-----7-----7-----7-----7---7-------|
|-------------------------5-----5-----0-----0-----5-----0-----0---0-------|#/20t2##/20t1#

#21t1#  |     |     |     |     |     |     |     |     |     |     |     |     |
#21t2#|-------------------------------------------------2-----2-----2---2-2-----|
|-2-----2-----2-----2-----6-----6-----6-----6-----3-----3-----3---3-3-----|
|-2-----2-----2-----2-----4-----4-----4-----4-----2-----2-----2---2-2-----|
|-2-----2-----2-----2-----6-----6-----6-----6-----0-----0-----0---0-0-----|
|-0-----0-----0-----0-----4-----4-----4-----4-----------------------------|
|-------------------------------------------------------------------------|#/21t2##/21t1#

#22t1#  |     |     |     |     |     |     |     |     |     |     |     |     |
#22t2#|-------------------------2-----2-----------------2-----2-----------------|
|-2-----3-----4-----2-----3-----3-----2-----2-----3-----3-----2-----2-----|
|-2-----2-----2-----2-----2-----2-----2-----2-----2-----2-----2-----2-----|
|-2-----0-----1-----2-----0-----0-----2-----2-----0-----0-----2-----2-----|
|-0-----2-----3-----4-----------------0-----0-----------------0-----0-----|
|-------------------------------------------------------------------------|#/22t2##/22t1#

#23t1#  |     o     |     o     |     |     |     |     |     |     |     |     |
#23t2#|-5-----5-----5-----5-----------------------------------------------------|
|-7-----7-----7-----7-----0----2----3---(4)-------2-----2-----6-----6-----|
|-8-----8-----8-----8-----1----2----4---(5)-------2-----2-----4-----4-----|
|-------------------------2-----------------------2-----2-----6-----6-----|
|-------------------------2-----------------------0-----0-----4-----4-----|
|-------------------------0-----------------------------------------------|#/23t2##/23t1#

#24t1#  |     |     |     |     |     |     |     |     |            o    o      o
#24t2#|-2-----2-----2---2-2-----------------0---0-0------------------2----0---------|
|-3-----3-----1---1-1-----2-----2-----3---3-3------------------1----3---1--2--|
|-2-----2-----2---2-2-----2-----2-----1---1-1-----2------------2-2------2--2--|
|-0-----0-----1---1-1-----2-----2-----2---2-2-----2----------0-1-2--2---1--2--|
|-------------------------0-----0-----------------0---2-3--4---0-0------0--0--|
|-----------------------------------------------------------------------------|#/24t2##/24t1#

o: let ring


special chords are:

  Aaug       Adim   Ddim  A#dim   C#7   C#7/A    E7   E7/F#  Amaj7  Adim  
E-|-----------2------1-------------4------5------0-0----2------0------5------|
B-|-2----2----1------3------2------6------6------3-5----3------2------7------|
G-|-2----0----2------1------3------4------4------1-7----1------1------8------|
D-|-3----3----1------0------2------6------6------2-6----2------2------7------|
A-|-4----4----0-------------4------4------4--------7-----------0-------------|
E-|-------------------------3----------------------0-------------------------|

  Esus7  F7    B7   B7/G#  F#m   D/B   Adim
E-|-------------2-----4-----2------------------|
B-|-3-----4-----4-----4-----2-----3-----4------|
G-|-2-----2-----2-----2-----2-----4-----5------|
D-|-0-----1-----4-----4-----4-----0-----7------|
A-|-2-----3-----------------4-----5-----6------|
E-|-0-----1-----------------2------------------|
WARNING!
This transcription is not perfect. 
There is a lot of "bluff" in it.
#25t1##25t2#---------------------------------#/25t2##/25t1#

and here comes the Red Special

#26t1#left
#26t2#|--------------------------------------------------------------------------|
|--------------------------------------------------------------------------|
|----5/6v-------4----7--4--------------------------------------------------|
|-7----------6------------5--5-/6--6v---------7--7-------------------------|
|----------------------------------------7--7------7r6--5-4------6---4-3-2-|
|--------------------------------------------------------------------------|#/26t2##/26t1#
#27t1#|middle
#27t2#|---------------------------------------------------------------------------|
|----7b8v----6--8b10v---7---------------------------------------------------|
|-7------------------------7--------------------6--7-8--9--------------9----|
|----------------------------9--7-9b10--b10v--------------10r9--7--7--------|
|---------------------------------------------------------------------------|
|---------------------------------------------------------------------------|
|right
|----------------------------------------------------------------------|
|----------------------------------------------------------------------|
|-6--9----6--9b10----7-----------------------4-5--6---------------5----|
|-----------------------7-5--4-5b7-5b7----7---------5r4--2--2----------|
|----------------------------------------------------------------------|
|----------------------------------------------------------------------|#/27t2##/27t1#

49"
left 
#28t1##28t2#|------------------------------------------------------------------------------------------|
|------------------------------------------------------------------------------------------|
|------------------------------------------------------------------------------------------|
|---4---7---7------------------------------------7---7--7---6--4--3--2--2-2--2-2--2--------|
|-5-------------6---7-----6b7---7--7---0-8b9----------------------------------------4--4-5-|
|------------------------------------------------------------------------------------------|#/28t2##/28t1#
#29t1#|middle
#29t2#|-----------------------------------------------------------------------------------------------------------|
|-----------4---5---7--6-5-4-3------------------------------------------------------------------------------|
|---6---7-----------------------*-5b6----6--6---*-6b7----7--8---b9--b9v----7--7---6--6\5--5\4--4------------|
|-7----------------------------------------------------------------------------------------------7--7-6b7---|
|-----------------------------------------------------------------------------------------------------------|
|-----------------------------------------------------------------------------------------------------------|
|right
|---------------------------------------------------------------------------------------------------------|
|---------------------------------------------------------------------------------------------------------|
|-------5b--6-----5b6--5b6-------------------------------5b6---6--6---6r5-4--4----------------------------|
|-4-7--------------------------6b7----7--7---4-6b7---7----------------------------7--7\6--6\5--5p3--3/4---|
|---------------7------------7----------------------------------------------------------------------------|
|---------------------------------------------------------------------------------------------------------|#/29t2##/29t1#

57"
left
#30t1##30t2#|------------------------------------------------------------------------------------------------|
|------------------------------------------------------------------------------------------------|
|------------------------------------------------------------------------------------------------|
|-6---7-----7---7--7--6--6--7--7--8--8--8b9-----4-4-----------------------7--7-----6----4--3--2--|
|------------------------------------------------------7r6--5--4----7--9-------------------------|
|------------------------------------------------------------------------------------------------|#/30t2##/30t1#
#31t1#|middle
#31t2#|-----------------------------------------------------------------------------------------|
|-6--6b7v---4---5--5--5--5--5--5--8--7----------------------------------------------------|
|---------------------------------------8b9------7-----------------5/6--7--8--9-9----5-6--|
|----------------------------------------------7-----9b11--r9--7--------------------------|
|-----------------------------------------------------------------------------------------|
|-----------------------------------------------------------------------------------------|
|right
|---------------------------------------------------------------------------------------------|
|---------------------------------------------------------------------------------------------|
|-7---7-----5---6--6--7--7--6--6--6--6--6b7--------------------------------5b6--6---5v--------|
|----------------------------------------------4-4----5r4--2---2---7---7----------------5-6---|
|---------------------------------------------------------------------------------------------|
|---------------------------------------------------------------------------------------------|#/31t2##/31t1#

1'22"
middle
#32t1##32t2#|----------------------|
|----------------------|
|----------------------|
|---9b11---9b11r9p7----|
|-9-----------------9--|
|----------------------|#/32t2##/32t1#

1'24"
three gtrs.
#33t1##33t2#|--------------------|
|--------------------|
|-6--6-7--7-8---b9---|
|-7--7-9--9-10--b11v-|
|-2--2-4--4-7----7---|
|--------------------|#/33t2##/33t1#


#34t1#middle 
#34t2#|---------------------------------------------------------------------------|
|---------------------------------------------------------------------------|
|-11-9--------------------9---11-9------------------------------------------|
|------9b10-7---7----11------------11-9-7---7---7--------7---7--------------|
|-------------9--------------------------------------989---------1097--9...-|
|---------------------------------------------------------------------------|#/34t2##/34t1#

solo: 1'45"
middle
#35t1##35t2#|------------------------------------------------------------------10b12---|
|-7b8---b8--7-5---------------------5-8b10v--b10vv----7---8-9---10---------|
|---------------5b7-------6---7-8------------------------------------------|
|--------------------------------------------------------------------------|
|---------------------7\---------------------------------------------------|
|--------------------------------------------------------------------------|#/35t2##/35t1#

#36t1##36t2#|-10--8b9----8b--8b-----------7---------------------|
|------------------------7-10---10\9---9\8---8-6----|
|----------------------9----------------------------|
|---------------------------------------------------|
|---------------------------------------------------|
|---------------------------------------------------|#/36t2##/36t1#

#37t1##37t2#|---------------------------------10--10-------10-14p11--------|
|-7---8-9---10-13b15--b15---12-10-----------10---------13------|
|--------------------------------------------------------14----|
|--------------------------------------------------------------|
|--------------------------------------------------------------|
|--------------------------------------------------------------|#/37t2##/37t1#

#38t1##38t2#|-----------12-------------------------------------------------------------------|
|----13b14-------13b14--14-------------------------------------------------------|
|-14-------------------------------14_____\----16b18--b18--b18--16-14------------|
|----------------------------13-14-14_____\---------------------------17r16-14---|
|--------------------------------------------------------------------------------|
|--------------------------------------------------------------------------------|#/38t2##/38t1#

#39t1##39t2#|-----------------------------------------------|
|-----------------------------------------------|
|-------14----14-16-16b17---14-16----14-16-14---|
|-15-16----16---------------------16------------|
|-----------------------------------------------|
|-----------------------------------------------|#/39t2##/39t1#

2'14"
three gtrs
#40t1##40t2#|--------------------------------------------------------------|
|-13/14--15--16b--b17v-----------------------------------------|
|-13/14--14--14---14v\-----------------------------------------|
|-13/14--16--15---14-----16p14----------------11-----9-----7---|
|------------------------------15------------------------------|
|---------------------------------16-14-13-12-12----13----14---|#/40t2##/40t1#

2'26"
left                  2'34"
#41t1##41t2#|--------------------|-------------------------------|
|--------------------|-------------------------------|
|-------------6---6--|-------------------------------|
|--------7--7--------|-7---------------4---5--6---7--|
|-7-7--7-------------|-----------7---7---------------|
|--------------------|-------------------------------|#/41t2##/41t1#
#42t1#|middle
#42t2#|--------------------|----------------------------------|
|-------------10--10-|----------------------------------|
|---6--7-8--9--------|-8---------7---7---7---b8---9-..--|
|-7------------------|----------------------------------|
|--------------------|----------------------------------|
|--------------------|----------------------------------|
|right
|----------------------|---------------------------|
|----------------------|---------------------------|
|---------------9--10--|---------------------------|
|---7--9-10--11--------|-11---9----6--6-7---9--10--|
|-7--------------------|---------------------------|
|----------------------|---------------------------|#/42t2##/42t1#

#43t1#left 2'41"             right 2'44"
#43t2#|---------------------|-------------------------------|
|---------------------|-------------------------------|
|---------------------|-16b18---b17_r_p14----14b---16-|
|-9b11--9br9---7---7--|-------------------16----------|
|----------------9----|-------------------------------|
|---------------------|-------------------------------|#/43t2##/43t1#

2'47"
left
#44t1##44t2#|----------------------------------------------------------------------------------|
|----------------------------------------------------------------------------------|
|----------------------------------------------------------------------------------|
|--5-7\0----2--2\---7--7\---6--6/---12--11---11b12----x--12-10b11-------10b11------|
|------------------------------------------------------------------12----------12--|
|----------------------------------------------------------------------------------|#/44t2##/44t1#
#45t1#|middle
#45t2#|-----------------------------------------------------------------------------------------|
|-------------------------------------------------10b12--b12---r10-----x--9---------------|
|--------9-11-9------------------9--9---10--10v-----------------------------11--9---------|
|-----10------------10b11--b11------------------------------------------------------------|
|-----------------------------------------------------------------------------------------|
|-----------------------------------------------------------------------------------------|
|right
|---------------------------------------------------------------------------------------------|
|---------------------------------------------------------------------------------------------|
|----------------------------------------------------10b--10b---10b11----9b11--9-7--6\--x-x---|
|-10b11---------------7--7---10b11--b11---b11--b11--------------------------------------------|
|---------------------------------------------------------------------------------------------|
|----------12--12\----------------------------------------------------------------------------|#/45t2##/45t1#

#46t1#left
#46t2#|-------------------------------------------------------------------------------------------------------|
|------10-------------------------------------------------------------------------------10--12--13b14---|
|--------11---12-13-b14v-------11---10---10-9---13b14--b14_r13p11-13b14--b14_r13p11-13------------------|
|-12------------------------12--------------------------------------------------------------------------|
|-------------------------------------------------------------------------------------------------------|
|-------------------------------------------------------------------------------------------------------|#/46t2##/46t1#
#47t1#|middle
#47t2#|------------------------------------------------------------------------------------------------------------------|
|-----10--12-13-13b14v-------10---12--13-14--17b19--17-14-----------------------------------------14--15--16_r17---|
|-11---------------------11-------------------------------16b18--18_r16p14-16b18--18_r16p14---16-------------------|
|------------------------------------------------------------------------------------------------------------------|
|------------------------------------------------------------------------------------------------------------------|
|------------------------------------------------------------------------------------------------------------------|
|right
|---------------------------------------------------------------------------------------------------|
|---------------------------------------------------------------------------------------------------|
|-------------------------------------------------------------------------------------------13_b14--|
|------12---12-13-14----x-12-----------------13---13---p11----13---13---p11-----12--13--14----------|
|-12--------------------------14b15--14-12-----------------14---------------14----------------------|
|---------------------------------------------------------------------------------------------------|#/47t2##/47t1#

#48t1#right 3'13"
#48t2#|--------------------|
|--------------------|
|--------------------|
|-9b11--9br9------7--|
|---------------9----|
|--------------------|#/48t2##/48t1#

3'19"
left                      3'25"
#49t1##49t2#|------------------------|---------|
|------------------------|---------|
|------------------------|-8--9v---|
|--------7--7------------|---------|
|-7-7--7------9--8----7--|---------|
|------------------------|---------|#/49t2##/49t1#
#50t1#|middle
#50t2#|--------------------------|----------|
|-------------10--10----10-|----------|
|---6--7-8--9--------------|----------|
|-7------------------------|-10--11v--|
|--------------------------|----------|
|--------------------------|----------|
|right
|---------------------------|-------------------------------|
|---------------------------|-------------------------------|
|---------------------------|-------------------------------|
|---7--8-9--10-11--12----13-|-5--7----7p6p5--5--------------|
|-7-------------------------|-------------------7--5b--3h4--|
|---------------------------|-------------------------------|#/50t2##/50t1#

the vocals in tab format:
(no guarantee)
1'16"                                      1'37"
#51t1##51t2#|-----------------------------------------------------------------------|
|-5----6---6---------3--2--3--2---4---3----5---6---7---7---5---4--3--2--|
|-2----6---4---2-----5-----5------2---1----6---4---7---8---2---5--2--2--|
|-2----7---6---4-----4--2--4--2---4---2----7---6---7---7---2---5-b4--2--|
|--------------4--------0-----0-----------------------------------------|
|-----------------------------------------------------------------------|#/51t2##/51t1#
#52t1#2'19"                                                         2'40"
#52t2#|-5--5--4----2--4--2---------b5--b5--5----b5--b5--5---5--4----5---7---7---8--5--5--5--5--|
|-2--2--2----4--4--4--5--2---b7--b7--5----b7--b7--5---7--5----5---9--10--10--5--8--7--5--|
|---------------------4--2---b5--b5--2----b5--b5--2---8--7----6--10--11--11--6--8--7--6--|
|-2--3--3--------------------------------------------------------------------------------|
|------------4--4--4--2--0---------------------------------------------------------------|
|----------------------------------------------------------------------------------------|#/52t2##/52t1#
#53t1#3'11"
#53t2#|-----------------8---8---5-------------|
|-5---12---12-------------5---5--5--5---|
|-6---10---11-----8---8---2---4--3--2---|
|-7---11---12---b10-----------5--4--2---|
|--------------------12-----------------|
|---------------------------------------|#/53t2##/53t1#
Composição: Colaboração e revisão: