Fight From The Inside

Queen

A
123
X02220
B
234
X24442
C
123
X32010
D
123
XX0232
Tom: G
#1t1##1t2#|-------------------------|--3------3-----------------|
|-3-----------------------|--3------3-----------------|
|-2b___4r__p0-------------|-b4------4r2___p0-----9\---|
|---------------x---9\2---|------------------2---9\---|
|---------------x---7\0---|---------------------------|
|-------------------------|---------------------------|#/1t2##/1t1#

#2t1#riff A
#2t2#|---------------------------------------------------------------3----|
|---------------------------------------------------------------3----|
|-----------------------------------------------------------0---2b4--|
|-5\-----------------------0----------------------------0h2-0-2------|
|-5\-------7-----7-----0h2---2p0------------7-----7---0-0h2----------|
|-5\---0-----0-0---0-------------3b-----0-----0-0---0----------------|#/2t2##/2t1#

#3t1##3t2#|----------------------------------------------------------3----|
|----------------------------------------------------------3----|
|------------------------------------------------------0---2b4--|
|---------------------0---2------------------------0h2-0--------|
|-----7-----7-0---0h2---2--------------7-----7---7-0h2---1------|
|-0-----0-0---0-------------3b-----0-----0-0---0----------------|#/3t2##/3t1#


#4t1##4t2#|-----------------------------------------------------------------|
|-----------------------------------------------------------------|
|-7h9-9---9p7---7h9-9-9p7-9p7-----7h9-9p7-9p7-----7---------------|
|-------------9---------------9p7-------------9p7---9p7-5b--------|
|-------------------------------------------------------------7---|
|-----------------------------------------------------------------|#/4t2##/4t1#
#5t1#|                  riff B                                         |
#5t2#|-----------------------------------------------------------------|
|-----------------------------------------------------------------|
|-----------------------------------------------------6/7---------|
|-7/9-9---9-----7/9---9-----------7/9-9---9-------7---4/5---------|
|-5/7-7---7-----5/7---7-----------5/7-7---7-------5-----------x-x-|
|---------------------0---------------------------------------x-x-|#/5t2##/5t1#

riffB X 4


#6t1#Riff C:
#6t2#|...------|-------------------------------|--------|----------------------------------|----------|-------|
|...------|-7-7---7---7-7-7/9-------------|--------|-14-14---14---7-7-7/9-------------|----------|-------|
|...------|-7-7---7---7-7-7/9-------------|-0/-----|-14-14---14---7-7-7/9-------------|-0/-------|-0/----|
|...------|-7-7---7---7-7-7/9-------------|-/0-----|-14-14---14---7-7-7/9-------------|-/0-------|-/0----|
|...5-x-x-|-5-5---5---5-5-5/7-------------|--------|-12-12---12---5-5-5/7-------------|----------|-------|
|...--x-x-|----------------------x-x-x-x--|--x-x-x-|--------------------------x-x-x-x-|--x---x-x-|-------|#/6t2##/6t1#

#7t1##7t2#|----------------------------------------------------------------|
|----------------------------------------------------------------|
|---------------------------------------------5------------------|
|-5h7-7p5-7-----5h7p5-7---x---x---5/7-7p5-7---5------------------|
|-5h7-7p5-7-----5h7p5-7---x---x---5/7-7p5-7----------7-5-7-5-----|
|----------------------------------------------------------------|#/7t2##/7t1#
#8t1#| Riff D (1)
#8t2#|----------------------------------------------------------------|
|----------------------------------------------------------------|
|---------------------------------------------5------------------|
|-5h7-7p5-7-------------5-7p5-7---5/7-7p5-7---5------------5-----|
|-5h7-7p5-7---------------7p5-7---5/7-7p5-7----------5-7-7-5-----|
|----------------------------------------------------------------|#/8t2##/8t1#

#9t1##9t2#|----------------------------------------------------------------|
|----------------------------------------------------------------|
|---------------------------------------------5------------------|
|-5h7-7---7-----5h7p5-7---x---x-x-5h7-7p5-7---5------------5-----|
|-5h7-7---7-----5h7p5-7---x---x-x-5h7-7p5-7----------7-5-7-5-----|
|----------------------------------------------------------------|#/9t2##/9t1#
#10t1#| Riff D (2)
#10t2#|----------------------------------------------------------------|
|--------------------------------------------------(5)-----------|
|---------------------------------------------5------------------|
|-7p5-7p5-------------------------5/7-7p5-7---5------------5-----|
|-7p5-7p5-------------------------5/7-7p5-7----------7-5-7-5-----|
|----------------------------------------------------------------|#/10t2##/10t1#

#11t1##11t2#|----------------------------------------------------------------|
|----------------------------------------------------------------|
|---------------------------------------------5------------------|
|-5h7-7p5-7-----5h7p5-7---x---x-x-5h7-7p5-7---5------------5-----|
|-5h7-7p5-7-----5h7p5-7---x---x-x-5h7-7p5-7----------7-5-7-5-----|
|----------------------------------------------------------------|#/11t2##/11t1#
#12t1#| Riff D (3)
#12t2#|----------------------------------------------------------------|
|----------------------------------------------------------------|
|---------------------------------------------5------------------|
|-7p5-7p5-----7p5-7p5-7-----------7p5-7p5-x---5------------5-----|
|-7p5-7p5-----7p5-7p5-7-----------7p5-7p5-x----------7-5-7-5-----|
|----------------------------------------------------------------|#/12t2##/12t1#

#13t1##13t2#|------------------------------|--------|
|-7-7---7---7-7-7/9------------|--------|
|-7-7---7---7-7-7/9------------|-0/-----|
|-7-7---7---7-7-7/9------------|-/0-----|
|-5-5---5---5-5-5/7------------|--------|
|----------------------x-x-x-x-|--------|#/13t2##/13t1#

riffA X 2
riffB X 5
RiffC 
RiffD

#14t1##14t2#|-----------------------------------------------------------------------------------------------xx-|
|-7-7---7---7-7-7/9---------14-14---14---7-7-7/9--------9-9-------9-9------9-9-9-9------9-9-----xx-|
|-7-7---7---7-7-7/9---------14-14---14---7-7-7/9--------9-9-------9-9------9-9-9-9------9-9-----xx-|
|-7-7---7---7-7-7/9---------14-14---14---7-7-7/9--------9-9-------9-9------9-9-9-9------9-9-----xx-|
|-5-5---5---5-5-5/7---------12-12---12---5-5-5/7--------7-7-------7-7------7-7-7-7------7-7-----xx-|
|--------------------------------------------------------------------------------------------------|#/14t2##/14t1#

Composição: Colaboração e revisão: Taino Vieira