busca

God Save The Queen

Queen

Tom: D
God save our gracious Queen... 
|-------------------|-------------------|-------------| 
|-------------------|-------------------|-------------| 
|-------------------|-11-11-12-11-------|-------------| 
|-12-12-14-11-12-14-|-------------14-12-|-14-12-11-12-| 
|-------------------|-------------------|-------------| 
|-------------------|-------------------|-------------| 

           ...Send her victorious.... 
|-------------|-------------------|-------------------| 
|-------------|-------------------|-------------------| 
|-------11-12-|-14-14-14-14-12-11-|-12-12-12-12-11----| 
|-12-14-------|-------------------|----------------14-| 
|-------------|-------------------|-------------------| 
|-------------|-------------------|-------------------| 

                    ...God save our Queen. 
|----------------------|----------------| 
|----------------------|----------------| 
|-12-11-------11-12-14-|-16-12-11-------| 
|-------14-12----------|----------14-12-| 
|----------------------|----------------| 
|----------------------|----------------|

--=versão 2=--

four gtrs arr for one:
|-------------2-----3-5---7---7---8---7-----5-----5---3---2---3----|
|-8---8--10---3-----2-3---8---8---8---8-----7-8---5---3---1---3----|
|-7---9---9---2-----2-2---7---9---9---7-----5-9---5---4---2---4----|
|-9---9--10---0-----2-4-----------------------9-------0---0--------|
|10---7------------------10---7-------5-----6-7---3----------------|
|---------8-----------------------8---------------------------3----|

Clipes

Cifra Club Pro

Aproveite o Cifra Club com benefícios exclusivos e sem anúncios
7 dias grátis
Cifra Club Pro
Aproveite o Cifra Club com benefícios exclusivos e sem anúncios
7 dias grátis