Good Old Fashioned Lover Boy

Queen

Ab
234
431114
Abm
34
466444
B
234
X24442
Bb
234
X13331
Bb7
34
X13131
Bbm7
34
X13121
C7
1234
X3231X
Cm
234
X35543
Eb
234
X65343
Eb7
1234
X6564X
F7
34
131211
Fm
34
133111
Gb7
34
242322
Gm
34
355333
Tom: G
Eb
I can dim the lights
              Ab            Gm   Cm
And sing you songs full of sad things
 Fm            Ab    Bb        Eb    Bb
We can do the tango just for two.
Eb                          Ab
I can serenade and gently play
         Gm      Cm
On your heart strings
 Fm           Abm  Bb7      Eb   Bb
Be your Valentino just for you

Eb   Bb (D bass) Cm  Gm Ab  Eb
Ooh love,        Ooh lover boy
  Bb (D bass)    Cm           G (B bass)
What're doing tonight hey boy?
     Cm  Gm       Cm      Gm
Set my alarm turn on my charm
          Fm                   Abm      Bb7        Eb
That's because I'm a good old fashioned     lover boy.

Abm                  Eb (G bass)
Ooh let me feel you heartbeat
       Eb7
(Grow faster faster)
Abm Gb7                B        Gb7
Ooh   can you feel my love heat
                       B      Gb7
Come on and sit on my hot seat of love
             B         Bb              Eb
And tell me how do you feel right after all
                     Ab         Gm Cm
I'd like for you and I to go romancing
Fm                 Abm     Bb7   Eb     Bb
Say the word your wish is my command.

Eb   Bb (D bass) Cm   Gm Ab  Eb Bb (D bass)
Ooh love         Ooh lov-er boy
                 Cm        G (B bass)
What're doing tonight hey boy?
  Cm      Gm     Cm        Gm
Write my letter feel much better
     Fm            Abm           Bb7    Eb
I'll use my fancy patter on the telephone

  Eb
When I'm not with you
                    Bb7
Think of you always I miss you
(I miss those       long hot summer nights)
  Eb
When I'm not with you
  Bbm7                F7       Bb7  C7
Think of me always I love you love you
 Fm
Hey boy where did you get it from?
Hey boy where did you go?
I learned my passion
        Abm                  Bb7           Eb
In the good old fashioned school of lover boys

Solo:
Guitarra
#1t1##1t2#|----------|------18--------------18----------------|
|-13-14-15-|----------------------------------------|
|----------|----------------------------------------|
|----------|----------------------------------------|
|----------|----------------------------------------|
|----------|----------------------------------------|#/1t2##/1t1#
#2t1#|multitrack backing:
#2t2#|----------|----------------------------------------|
|----------|-11-------------------------------------|
|----------|-12--------12___b13--------10---9-10--7-|
|----------|-13--------14___b15--------12--11-12--8-|
|----------|-----------16___b17--------13--12-13-10-|
|----------|----------------------------------------|#/2t2##/2t1#

#3t1##3t2#|-----------15----15-------------------------__----------------------------------15--16-18-b20--b20--b20|
|--------------18-----------------------b20_rbr18p16-15--16-18---------15-16--18------------------------|
|---------------------------------------------------------------15-17-----------------------------------|
|-------------------------------------------------------------------------------------------------------|
|-------------------------------------------------------------------------------------------------------|
|-------------------------------------------------------------------------------------------------------|
|#/3t2##/3t1#
#4t1##4t2#|-------------------------------------------|
|----------------------11-10-11---13__/16---|
|12-11-12--------------12-11-12---13__/15---|
|13-12-13--------------12-11-12---16--------|
|15-14-15-----------------------------------|
|-------------------------------------------|#/4t2##/4t1#

#5t1##5t2#|---x-----------------------------15-15---------------------15----|
|-x------------15-___________-----------------------b20--18-------|
|----------16-----17b19r17p16-17----------------------------------|
|-------17--------------------------------------------------------|
|-----------------------------------------------------------------|
|-----------------------------------------------------------------|#/5t2##/5t1#

#6t1##6t2#|-----------------------------------------Wah-Wah-----------------------|
|----------------------------------------->>>><<<<----------------------|
|--------------12__11__10__8-----------12-11-12----------------0/----|
|-13___12-----12__9___6___5-----------12-11-12----------------/0----|
|-15___14--------------------------------13-12-13----------------------|
|-----------------------------------------------------------------------|#/6t2##/6t1#

#7t1##7t2#|----------------------------------6__/8--10__/11__/16__b18__r16----|
|-6__/8--9__/13__/18__b20__r18--------------------------------------|
|-------------------------------------------------------------------|
|-------------------------------------------------------------------|
|-------------------------------------------------------------------|
|-------------------------------------------------------------------|
|#/7t2##/7t1#
#8t1##8t2#|-------------------------------------------------------------------|
|--9_____________/13_______9---------------------------------------|
|--------------------------------12________________13________/16----|
|-10_____________/13_______10---12________________13________/16----|
|--8_____________/11_______8----13________________14________/18----|
|-------------------------------------------------------------------|#/8t2##/8t1#

#9t1##9t2#|----------------------________-------------
|-20r18p16---18__b21---18b20r18p16--18b21---|
|-------------------------------------------|
|-------------------------------------------|
|-------------------------------------------|
|-------------------------------------------|#/9t2##/9t1#

#10t1##10t2#|------------------------18---|
|-b20-------------------------|
|-------------18-17brp15------|
|-----------------------------|
|-----------------------------|
|-----------------------------|
|#/10t2##/10t1#
#11t1##11t2#|--------------------/18------|
|--9__/13__/16__/20_-/20------|
|-10__/13__/17__/20_-/20------|
|-10__/15__/18__/22_----------|
|-----------------------------|
|-----------------------------|#/11t2##/11t1#

:Eb Ab Gm Cm Fm Ab Bb Eb Bb : Eb Ab Gm Cm Fm Abm Bb7 Eb Bb:
Dining at the Ritz we'll meet at nine precisely
(One two three four five six seven eight nine)
I will pay the bill you taste the wine
Driving back in style in my saloon will do quite nicely
Just take me back to yours that will be fine
(Come on and get it)

:Eb Bb (D bass) Cm Gm Ab Eb Cm G (B bass) Cm Gm Cm Gm Fm Abm Bb7 Eb:
Ooh love Ooh lover boy
What're you doing tonight hey boy?
Ev'rything's all right just hold on tight
That's because I'm a good old fashioned lover boy
Composição: Colaboração e revisão: Taino Vieira