busca

I'm In Love With My Car

Queen

Tom: G
Intro:
  ( D5 )
|------||------------------------------------------------------------------------------|
|------||------------------------------------------2-3-5b7v----r5p3-5p2-3p2------------|
|------||-------0h2h4p2~4-p0-----------------0h2h4---------------------------4p2-4p0h2-|
|------||-0h2h4--------------2-----0-----2h4-------------------------------------------|
|------||-----------------------4------------------------------------------------------|
|------||------------------------------------------------------------------------------|

Verse 1:
 Em                     G                    D
      Ohhhhh...            The machine of a dream.
C                        Em                     G
  Such a clean machine.     When the pistons a pumpin',
D                      C      Em
  And the hubcaps all gleam.     When I'm holding your wheel,
G                           D
  All I hear is your gear,   When my hand's on your grease gun,
C
  Oh, it's like a disease son.

Tab do verso:
||-----------||-----------------------------------------|---------------------------------------|
||-----------||-----------------------------------------|-15b17----15--13--12-------------------|
||-----------||-------------14b16___r15b16r14p1214b16---|----------------------b15_r14p12-------|
||-----------||----------14-----------------------------|---------------------------------14-12-|
||-----------||----10-14--------------------------------|---------------------------------------|
||-----------||-12--------------------------------------|---------------------------------------|
|
||------------------------------|-------------------------|
||-b20__r18-b20--b19-b20__r-17--|-------------------------|
||------------------------------|-15__r14p12-14b15--------|
||------------------------------|--------------------14---|
||------------------------------|-------------------------|
||------------------------------|-------------------------|

Refrão:
Em                     G     D                  C
  I'm in love with my car.    Gotta feel for my au
Em                   G                    D                        C
  Geat a grip on my boy racer roller bar,   Such a thril when your radials squeel.

Verse 2:
B                                      C
 Told my girl I'll have to forget her,  Rather buy me a new carburetor,
B                                               C
 So she made tracks saying this is the end now,  Cars don't talk back,
                                        
they're just four wheeled friends now.
Tab do verso:
||-----------||-----------------------------------|------------------------------------------|
||-----------||-----------------------------------|------------------------------------------|
||-----------||-4p2----------------------7rrr4----|-7b9__-7--5--4--5--4~5--------------------|
||-----------||--------3p2p0-----4/5--------------|------------------------7-5~7---5\4-------|
||-----------||--------------2--------------------|-------------------------------------7p5--|
||-----------||-----------------------------------|------------------------------------------|

Ponte:
  ( D5 )
|------|----------------------------------------------------|
|------|----------------------------------------------------|
|------|-----------------------2h4h5---4h5p4p2p0h2p0--------|
|------|-2h4h5p4p2p0---0h2h4h5-----------------------4p2p0--|
|------|----------------------------------------------------|
|------|----------------------------------------------------|

Verso 3:
Em                            G
  When I'm holding you wheel,   All I hear is your gear,
D                               C
  When I'm crusing in overdrive, Don't have to listen to no run of the mill talk jive.
Tab do verso:
||--||----------------------------------------|---------------------------------|
||--||----------------------------------------|-15--17v-----15--17--b19_r17-----|
||--||-----------------------------12h14b16v--|-----------------------------14--|
||--||-----------------------12h14------------|---------------------------------|
||--||-----------10--12--14-------------------|---------------------------------|
||--||-8//10-12-------------------------------|---------------------------------|
|
||--------------------------------------------------17-----------|
||-(17)b20---b19--17--15--17--17b19_r17p15--17--19------19b21v---|
||---------------------------------------------------------------|
||---------------------------------------------------------------|
||---------------------------------------------------------------|
||---------------------------------------------------------------|

Refrão:
Em                     G     D                  C
  I'm in love with my car.    Gotta feel for my au
Em                     G     D                         C
  I'm in love with my car.    String back gloves in my au
Final:
  ( D )
|-----|------------|-----------|--------------------|---------------------|-------------------|
|-----|------------|-----------|--------------------|---------------------|-5p3-5p3---3-------|
|-----|-0h2h4p2----|-----------|-p2h4p2p0-----------|-4h5p4p2p0h2h4p2p0---|---------5---5b7---|
|-----|---------0--|-5p4p2p0---|------------3---0---|---------------------|-------------------|
|-----|------------|-----------|--------------------|---------------------|-------------------|
|-----|------------|-----------|--------------------|---------------------|-------------------|

|----------------------------------------------------------------------------------|
|----------------------------------------------------------------------3---3-5b6v--|
|-5----2---5p2-5p2-5p2-----------------------------------------------5---5---------|
|----------------------5p3-5p3---------------------------------6r5b6---------------|
|------------------------------5---5p3-5p3-------------3-5-3-5---------------------|
|------------------------------------------5p0-5-3-1-------------------------------|

|-3-3----3-3--0-----0-2-2--|
|-3-3----2-3--3--3--3-3-3--|
|-0-0----2-2--2--2--2-2-2--|
|-0-0----2-2--------0-0----|
|-2-2----------------------|
|--------------------------|

Clipes