busca

Jealousy

Queen

Tom: D#
Intro:
(Piano)
-6-----6-5-----5-------------------8-------
-----8---6---6---8-----8----108-----8------
---7-------5-----10----10-----9------9-----
-5------------------10----10----10----10---
-------------------------------------------
-----------------8-------------------------

(Parte acústica)
-----------------------------------------------------------
-----------------------------------------------------------
-----------7--------------------9--------------------10----
-8---7-8-------7-8----5---7-8-------7-8---5---7-8----------
-----------------------------------------------------------
-----------------------------------------------------------

Piano:              (+A)
---------8-----8-----8---8---8--------------------
---6---8-10----10----8---8---8---11-10-8----------
-7---9------10----10---9---9---8---------11-8-----
----------------------------------------------12--
---------8----------------------------------------
-----------------------------11-------------------
Oh how wrong can you be?

        (+G)
-6---6---6---6---6-----------------3---3-----3------
-8---8---6---6---6---10-8-7-----10-----3-6---3-6----
---7---7---7---7---6--------8-7--------3-3---3-3----
-5-----------------------------------5-----5-----5--
----------------------------------------------------
-----------------9-----------------3----------------
Oh to fall in love was my very first mistake


F       Cm
Oh how wrong can you be?
Gm             Bb          Fm         Gm
Oh to fall in love was my very first mistake
Fm                      Bb7/4    Bb     Bb4     Bb7
How was I to know I was far too much in love to see?

Eb          Cm
Oh jealousy look at me now
Gm           Fm
Jealousy you got me somehow
Bb          Bb11
You gave me no warning
G#m/Bb
Took me by surprise
Eb       C#/Eb
Jealousy you led me on
G#           Gm                Cm
You couldn't lose you couldn't fail
Bb                      Eb
You had suspicion on my trail
Dm      Cm  Bb   
How how how all my jealousy

Eb       Dm            Gm           
I wasn't mad enough to let you hurt my pride
        D/F#
Now I'm only left with my own jealousy

Ponte:
(Parte acústica)
-----------------------------------------------------------
-----------------------------------------------------------
-----------7--------------------9--------------------10----
-8---7-8-------7-8----5---7-8-------7-8---5---7-8----------
-----------------------------------------------------------
-----------------------------------------------------------

F       Cm
Oh how strong can you be
Gm                          
With matters of the heart?
         Bb           
Life is much too short 
     Fm             Gm
To while away with tears
Bb7/4                       Bb4     Bb
If only you could see just what you do to me

Eb          Cm
Oh jealousy you tripped me up
Gm        Fm
Jealousy you brought me down
Bb            Bb11    G#m/Bb
You bring me sorrow you cause me pain
Eb       C#/Eb
Jealousy when will you let go?
G#            Gm             Cm
Gotta hold of my possessive mind
          Bb              Eb
Turned me into a jealous kind

Dm      Cm  Bb   
How how how all my jealousy
Eb       Dm            Gm           
I wasn't mad enough to let you hurt my pride
        D/F#
Now I'm only left with my own jealousy

(Parte acústica)
--------------------
--------------------
------------10------
-5---7-8------------
--------------------
--------------------

Eb       Dm            Gm
But now it matters not if I should live or die
           D/F#
'Cause I'm only left with my own jealousy

Final:
(Parte acústica)
-----------------------------------------------------------
-----------------------------------------------------------
-----------7--------------------9--------------------10----
-8---7-8-------7-8----5---7-8-------7-8---5---7-8----------
-----------------------------------------------------------
-----------------------------------------------------------

Notas:
G#m/Bb:6xx444
C#/Eb:x6x664
D/F#:2x423x

Clipes

Cifra Club Pro

Aproveite o Cifra Club com benefícios exclusivos e sem anúncios
7 dias grátis
Cifra Club Pro
Aproveite o Cifra Club com benefícios exclusivos e sem anúncios
7 dias grátis