Keep Yourself Alive

Queen

A
123
X02220
A5
12
X022XX
Ab5
134
466XXX
Bb5
134
X133XX
C5
134
X355XX
D5
134
X577XX
Db
234
X46664
Db5
134
X466XX
E5
12
022XXX
F5
134
133XXX
G5
134
355XXX
Tom: G
[Intro] F5  A5 

#1t1#   F5
#1t2#E|----------------------------------------------------|
B|----------------------------------------------------|
G|----------------------------------------------------|
D|----------------------------------------------------|
A|----------------------------------------------------|
E|-1--1-1-1-1-1-1-1---1---1-1-1-1-1-1-1---1--1-1-1-1--|#/1t2##/1t1#

#2t1#         A5
#2t2#E|----------------------------------------------------|
B|----------------------------------------------------|
G|----------------------------------------------------|
D|----------------------------------------------------|
A|----------------------------------------------------|
E|-1-1---5--5-5-5-5-5-5---5--5-5-5-5-5-5-5---5---5-5--|#/2t2##/2t1#

#3t1##3t2#E|----------------------------------------------------|
B|----------------------------------------------------|
G|----------------------------------------------------|
D|----------------------------------------------------|
A|----------------------------------------------------|
E|-5-5-5-5-5-5-----5----5-5-5-5-5-5-5-5---5---5-5-5---|#/3t2##/3t1#

#4t1##4t2#E|----------------------------------------------------|
B|----------------------------------------------------|
G|-7b-7~--8r7-----7--5--------------------------------|
D|-7b-7~--8r7-5---7--5---7p5---5-7--------------------| (5x)
A|--------------7------------7------------------------|
E|----------------------------------------------------|#/4t2##/4t1#

#5t1#                               C5 D5 
#5t2#E|----------------------------------------------------|
B|----------------------------------------------------|
G|-7b-7~--8r7-----7--5---------5--7-------------------|
D|-7b-7~--8r7-5---7--5---7p5---5--7-------------------|
A|--------------7------------7-3--5-------------------|
E|----------------------------------------------------|#/5t2##/5t1#

( G5  C5  F5 )

[Primeira Parte]

F5
 I was told a million times
             Bb5           F5
Of all the troubles in my way
                   
How I had to grow a little wiser

Little better ev'ry day
     
           C5
But if I crossed a million rivers
       Db
And I rode a million miles
           Ab5
Then I'd still be where I started
           C5
Bread and butter for a smile

        F5
Well I sold a million mirrors
       Bb5         F5
In a shop in alleyway

But I never saw my face

In any window any day

           C5
Well they say your folks are telling you
    Db5
To be a super star
       Ab5
But I tell you just be satisfied
     A5 
To stay right where you are
 
[Refrão]

 D5                   G5
Keep yourself alive, yeah
 D5             A5
Keep yourself alive

#6t1##6t2#E|----------------------------------------------------|
B|----------------------------------------------------|
G|-2-3-4/5-5~-----------------------------------------|
D|------------------7-7h9p7---5~----------------------|
A|--------------7h9---------7-------------------------|
E|----------------------------------------------------|#/6t2##/6t1#

It'll take you all your time and money, honey

You'll survive

[Solo] A5

#7t1##7t2#E|----------------------------------------------------|
B|----------------------------------------------------|
G|-7b-7~--8r7-----7--5--------------------------------|
D|-7b-7~--8r7-5---7--5---7p5---5-7--------------------| (2x)
A|--------------7------------7------------------------|
E|----------------------------------------------------|#/7t2##/7t1#

#8t1##8t2#E|----------------------------------------------------|
B|-/8-8-8-7-5---/8-8-8-7-5-5---/8-8-8-8---10-10-10-10-|
G|-/9-9-9-7-6---/9-9-9-7-6-6---/9-9-9-9---11-11-11-11-|
D|-------------------------7--------------------------|
A|----------------------------------------------------|
E|----------------------------------------------------|#/8t2##/8t1#

#9t1##9t2#E|----------------------------------------------------|
B|-12-12-/14------------------------------------------|
G|-12-12-/14------------------------------------------|
D|----------------------------------------------------|
A|----------------------------------------------------|
E|----------------------------------------------------|#/9t2##/9t1#

#10t1#                               C5 D5 
#10t2#E|----------------------------------------------------|
B|----------------------------------------------------|
G|-7b-7~--8r7-----7--5---------5--7-------------------|
D|-7b-7~--8r7-5---7--5---7p5---5--7-------------------|
A|--------------7------------7-3--5-------------------|
E|----------------------------------------------------|#/10t2##/10t1#

[Segunda Parte]

           F5 
Well I've loved a million women
      Bb5        F5
In a Belladonic haze
     
And I ate a million dinners

Brought to me on silver trays

        C5
Give me everything I need
            Db5
To feed my body and my soul
           Ab5
And I'll grow a little bigger
        C5
Maybe that can be my goal

       F5
I was told a million times
            Bb5          F5
Of all the people in my way

How I had to keep on trying

And get better ev'ry day

           C5
But if I crossed a million rivers
       Db5 
And I rode a million miles
           Ab5
Then I'd still be where I started
 A
Same as where I started

[Refrão]

 D5                   G5
Keep yourself alive, yeah
 D5             A5
Keep yourself alive

#11t1##11t2#E|----------------------------------------------------|
B|----------------------------------------------------|
G|-2-3-4/5-5~-----------------------------------------|
D|------------------7-7h9p7---5~----------------------|
A|--------------7h9---------7-------------------------|
E|----------------------------------------------------|#/11t2##/11t1#

It'll take you all your time and money, honey

You'll survive

[Solo] F5  Bb5  F5  C5
       F5  E5  D5  A5  C5 
       A5  G5  F5
       F5  Bb5  F5  C5
       F5  E5  D5  A5  C5 
       A5  G5  F5


[Refrão]

 D5                   G5
Keep yourself alive, yeah
 D5             A5
Keep yourself alive

#12t1##12t2#E|----------------------------------------------------|
B|----------------------------------------------------|
G|-2-3-4/5-5~-----------------------------------------|
D|------------------7-7h9p7---5~----------------------|
A|--------------7h9---------7-------------------------|
E|----------------------------------------------------|#/12t2##/12t1#

It'll take you all your time and money, honey

To keep me satisfied

[Ponte]

Do you think you're better ev'ry day?

No I just think I'm two steps nearer to my grave

#13t1##13t2#E|----------------------------------------------------|
B|---------------------7-8-9-10~----------------------|
G|---------------7-8-9--------------------------------|
D|--------7-9-11--------------------------------------|
A|-7-9-11---------------------------------------------|
E|----------------------------------------------------|#/13t2##/13t1#

[Refrão]

 D5                   G5
Keep yourself alive, yeah
 D5             A5
Keep yourself alive

#14t1##14t2#E|----------------------------------------------------|
B|----------------------------------------------------|
G|-2-3-4/5-5~-----------------------------------------|
D|------------------7-7h9p7---5~----------------------|
A|--------------7h9---------7-------------------------|
E|----------------------------------------------------|#/14t2##/14t1#

It'll take you all your time and money, honey

To keep me satisfied

 D5                   G5
Keep yourself alive, yeah
 D5             A5
Keep yourself alive

#15t1##15t2#E|----------------------------------------------------|
B|----------------------------------------------------|
G|-2-3-4/5-5~-----------------------------------------|
D|------------------7-7h9p7---5~----------------------|
A|--------------7h9---------7-------------------------|
E|----------------------------------------------------|#/15t2##/15t1#

It'll take you all your time and money, honey

To keep me satisfied
Composição: Colaboração e revisão: Getúlio VasconcelosTaino Vieira