busca

Save Me

Queen

Tom: G
     G     D/F#    Em   D/F#  G
It started off so well
              C      G/B     Am  G/B
They said we made a perfect pair
    C        D       D4    G
I clothed myself in your glory
          C
And your love
       G/B   G
How I loved you
 C  G   D
How I cried
     Am           G    C      G/B
The years of care and loyalty
      Am             C  G   D
Were nothing but a sham it seems

     C       D   D4  G       C
The years belie we  lived a lie
   G/B  G   C      G
I love you till I die

 D        A/C#     G/B  D
Save me, save me, save me
   D               E     A  G
I can't face this life alone
 D        A/C#     D/C  G/B  Gm/Bb
Save me, save me, save me
     D             C    G   D
I'm naked and I'm far from home

      G         D/F#     Em   D/F#  G
The slate will soon be clean
     C          G/B Am   G/B
I'll erase the memories
     C     D    D4   G        C
To start again with somebody new
       G/B  G
Was it all wasted
C     G   D
All that love?
   Am          G/B   C         G/B
I hang my head and I advertise
   Am       C   G   D
A soul for sale or rent
   C       D    D4   G       C
I have no heart I'm could inside
   G/B  G  C      G
I have no real intent

 D       A/C#    G/B  D
Save me,save me,save me
   D               E     A   G
I can't face this life alone
 D        A/C#    D/C   G/B  Gm/Bb
Save me, save me, oohhh
     D             C    G   Am
I'm naked and I'm far from home

( Am  G  D/F#  Em  G )
( C  G/B  Am )
( C  D  G  D  C  G )
( C  G  D  C )

      C        D
Each night I cry
           G         C
I still believe the lie
   G/B  G   C      G
I love you till I die, yeah

[Solo] D  A/C#  G/B  D
       D  E  A  G

E|----------------------------------------------------|
B|--14b15----14b15r14p12------17b19~r17--15-14-17-15--|
G|----------------------14----------------------------|
D|----------------------------------------------------|
A|----------------------------------------------------|
E|----------------------------------------------------|

E|-------14-17-14h15-14h15-14-------------------------|
B|----15----------------------15---19b21---b21r19p17--|
G|-14-------------------------------------------------|
D|----------------------------------------------------|
A|----------------------------------------------------|
E|----------------------------------------------------|

E|-19b21--b22--b21r19-19p17-------------------------------------|
B|--------------------------20p19-------------------------------|
G|--------------------------------21p19-21p19----------18--19~--|
D|--------------------------------------------21p19-21----------|
A|--------------------------------------------------------------|
E|--------------------------------------------------------------|

 D        A/C#     D/C  G/B  Gm/Bb
Save me, save me, save me
       D              C   G D   G
Don't let me face my life alone
 D        A/C#     D/C  G/B  Gm/Bb
Save me, save me, huhuuuu
     D             C    G   D
I'm naked and I'm far from home

Clipes