busca

She Makes Me

Queen

Tom: C
-==tablatura=--

Riffs 1:          2:              3:              4:
|-2-2-2-0----|  |-2-2-2-3----|  |-3-3-3-3----|  |-3-3-3-0----|
|-3-3-3-2----|  |-3-3-3-1----|  |-1-1-1-3----|  |-3-3-3-2----|
|-2-2-2-2----|  |-2-2-2-0----|  |-0-0-0-0----|  |-0-0-0-2----|
|-0-0-0-2----|  |-0-0-0-0----|  |-0-2-2-0----|  |-0-0-0-2----|
|-------0----|  |------------|  |-------2----|  |-2-2-2-0----|
|------------|  |------------|  |------------|  |------------|

Refrão:
-0---0--0--0--0--0--0--0--0--2--2--2--2--2--2--2----2----0--0--4--4--2--2-------
-0---2--2--0--0--2--2--2--2--0--0--2--2--0--2--3--232-3--2--2--6--6--2--2--4--4-
-1---2--2--1--1--2--2--1--0--2--2--2--2--2--2--2----2----2--2--4--4--2--2--4--4-
-2---2--2--2--2--2--2--2--2--0--0--0--0--0--0--0----0----2--2--6--6--4--4--4--4-
-2---0--0--2--2--0--0--0--0------------------------------0--0--4--4--4--4--2--2-
-0---------0--0------------------------------------------------------2--0-------

-2--2--2---
-3--3--3---
-2--2--2--- + Riff 1:
-0--0--0---
-----------
-----------

Final:
  1x              3x              ...              ...              ... (Esculte o final bem!!)
|-5-5-5-3----|  |-3-3-3-1----|  |-3-3-3-1----|  |-3-3-3-1----|  |-1-0-1-0--|
|-7-7-7-5----|  |-5-5-5-3----|  |-5-5-5-1----|  |-3-3-3-1----|  |-3-2-2-1--|
|-7-7-7-5----|  |-5-5-5-3----|  |-4-4-4-2----|  |-4-4-4-2----|  |-3-3-3-2--|
|-0-0-0-0----|  |-0-0-0-0----|  |-0-0-0-0----|  |-0-0-0-0----|  |-------0--|
|------------|  |------------|  |------------|  |------------|  |----------|
|------------|  |------------|  |------------|  |------------|  |----------|

--
Intro: Riff 1=4x

Verso 1:
Riff 1=6x
 I love,she makes me
                Riff 2=1x       Riff 3=1x
She is my heart, she is my love
Riff 4=1x       Riff 1=1x
 She is my love

Verso 2: 
Riff 1=6x
 I know, I'm jealous of her
                  Riff 2=1x       Riff 3=1x
She makes me need, she is my love 
Riff 4=1x        Riff 1=1x   E7
 She is my love

Refrão:     
     Who knows who'll she make me, as I lie in her cocoon?
     And the world will surely heal my ills
     I'm warm and terrified, she makes me so

Verso 3:
Riff 1=6x
I know, the day I leave her
                    Riff 2=1x       Riff 3=1x
I'll love her still, she is my love
Riff 4=1x      Riff 1=1x   E7
she is my love

Refrão:
     Who knows where my dreams will end
     I'll follow as they go
     But the world will know how long I take
     And if I'm very slow, she makes me so.

Final:
  She is my love  
  She is my love   


-==Cifra==-
Intro:    D A   D A   D A   D A

Verso 1:
D  A     D A    D A        D A
 I love,          she makes me
D          A    D A   D           C    C  G/B
 She is my heart        she is my love
G/B        A    D A   
 She is my love

Verso 2:
D   A   D A   D          A        D A    
 I know,       I'm jealous of her
D             A    D A  D           C     C  G/B
 She makes me need,       she is my love 
G/B        A    D A E7
 She is my love

Refrão:
--0--0--0--0--0--0--0--0--2--2--2--2--2--2--2------2----0--0--4--4--2--2-------
--2--2--0--0--2--2--2--2--0--0--2--2--0--2--3--2-3-2-3--2--2--6--6--2--2--4--4-
--2--2--1--1--2--2--1--0--2--2--2--2--2--2--2------2----2--2--4--4--2--2--4--4-
--2--2--2--2--2--2--2--2--0--0--0--0--0--0--0------0----2--2--6--6--4--4--4--4-
--0--0--2--2--0--0--0--0--------------------------------0--0--4--4--4--4--2--2-
--------0--0--------------------------------------------------------2--0-------

-2--2--2--
-3--3--3--
-2--2--2-- + D A D A
-0--0--0--
----------
----------     
Who knows who'll she make me, as I lie in her cocoon?
And the world will surely heal my ills
I'm warm and terrified, she makes me so

Verso 3:
D   A   D A   D         A       D  A 
I know,      the day I leave her
D               A   D A  D         C    C  G/B
I'll love her still,    she is my love
G/B        A    D A E7
she is my love

Refrão:
--0--0--0--0--0--0--0--0--2--2--2--2--2--2--2------2----0--0--4--4--2--2-------
--2--2--0--0--2--2--2--2--0--0--2--2--0--2--3--2-3-2-3--2--2--6--6--2--2--4--4-
--2--2--1--1--2--2--1--0--2--2--2--2--2--2--2------2----2--2--4--4--2--2--4--4-
--2--2--2--2--2--2--2--2--0--0--0--0--0--0--0------0----2--2--6--6--4--4--4--4-
--0--0--2--2--0--0--0--0--------------------------------0--0--4--4--4--4--2--2-
--------0--0--------------------------------------------------------2--0-------

-2--2--2--
-3--3--3--
-2--2--2-- + D A D A
-0--0--0--
----------
----------
Who knows where my dreams will end
I'll follow as they go
But the world will know how long I take
And if I'm very slow, she makes me so.

D A

Final:
D           C     (C C C)
  She is my love  
C           Dm7
  She is my love    Até o final C-Dm7

Clipes