busca

Spread Your Wings

Queen

Tom: C
Intro 2x:
     D5
E|-------------------|
B|-3--------3--------|
G|-----2---------2---|
D|---0---0-----0---0-|
A|-------------------|
E|-------------------|

Verso 1:
D5                      E7              G            Gm     D
Sammy was low Just watching the show Over and over again
D5                          E7                      G              Gm      D
Knew it was time He'd made up his mind To leave his dead life behind

Verso 2:
     Bm                           Bm/A    Bm/G#
His boss said to him 'Boy you'd better begin
   G                A             D5
To get those crazy notions right out of your head

Pré-Refrão:
Em                  C7
Sammy who do you think that you are?
D5                     E              Gm        D
You should've been sweeping up the Emerald bar`

  ( Gm  D )
E|-1-0-----1-0--------|-------------|
B|-----3-------3---3--|-------------|
G|-------3-------3----|-------------|
D|--------------------|-2/4--4-2--0-|
A|--------------------|-------------|
E|--------------------|-------------|

Refrão:
D5                     Bm       E7       A
Spread your wings and fly away Fly away far away
   D5                         Bm       E7       A
Spread your little wings and fly away Fly away far away
Gm                                D
Pull yourself together 'Cos you know you should do better
A#5+(9)  D5                           D
        That's because you're a free man
E|----------2----|
B|----------3----|
G|-----0----0-2--|
D|---0-----0--0--|
A|-1-----3-------|
E|---------------|

Verso 3:
              Bm              Bm/A     Bm/G#
He spends his evenings alone in his hotel room
A                               F#7/4              F#7
Keeping his thoughts to himself he'd be leaving soon
Bm               Bm/A       Bm/G#
Wishing he was miles and miles away
A                               F#7/4              F#7
Nothing in this world nothing would make him stay
Solo 1:
E|---------------------------------------------------------------------------|
B|-10b12----12r10p8-12-12b14----14r12p10-13b15----15r13p10-13b15----15r13p12-|
G|---------------------------------------------------------------------------|
D|---------------------------------------------------------------------------|
A|---------------------------------------------------------------------------|
E|---------------------------------------------------------------------------|

E|----------------------------------------------|
B|-13b15----15r13p12-15b17vr15-12---------------|
G|--------------------------------13------------|
D|-----------------------------------14-12-11v--|
A|----------------------------------------------|
E|----------------------------------------------|

Verso 3:
D5
Since he was small
E7
Had no luck at all
G                         D5
Nothing came easy to him
D5
Now it was time
E7
He'd made up his mind
 G                              D5
'This could be my last chance'

Verso 4:
    Bm           Bm/A
His boss said to him 'now listen boy
             Bm/G#
You're always dreaming
G                                  D5
You've got no real ambition you won't get very far

Pré-refrão:
Em                  C7
Sammy boy don't you know who you are?
D5                     E              Gm        D5
Why can't you be happy at the Emerald bar?'
E|-1-0-----1-0-------|-------------|
B|-----3-------3---3-|-------------|
G|-------3-------3---|-------------|
D|-------------------|-2/4--4-2--0-|
A|-------------------|-------------|
E|-------------------|-------------|

Refrão:
So honey
D5                      Bm
Spread your wings and fly away
 E7       A
Fly away far away


D5                             Bm
Spread your little wings and fly away
 E7       A
Fly away far away
(Faça junto com essa parte do refrão!)
E|-------------------------------------------------------------------------------|
B|-------------------------------------------------------------------------------|
G|-11__r9p7------------7--------------------------9b11__r------------------------|
D|----------9-7------------9-7-___------------7----------------------------------|
A|-----------------7h9---------9p75---7/9-----------------/5-----5-------7-5-----|
E|------------------------------------------------------------------7-7-------7--|

E|-------------------------------------------------------|
B|----------------------------------10b11v----10v----3---|
G|---------------------7---10r9-7------------------------|
D|-----------------7-9-----------------------------------|
A|-5-5-----5---7/9---------------------------------------|
E|-----7-------------------------------------------------|

Gm
Pull yourself together
           D5
'Cos you know you should do better
A#5+(9)  D                           D5
        That's because you're a free man
E|------------2--|
B|------------3--|
G|----0-----0-2--|
D|---0----0---0--|
A|-1----3--------|
E|---------------|

Come on honey
Solo:
E|----------------------------------------------------------|
B|----------------------------------------------------------|
G|---------7----7p6-----------7---7-7p6__--------7---9b11---|
D|----------------------------------------------------------|
A|-5---7/9------------5---7/9-------------5---7/9-----------|
E|----------------------------------------------------------|

E|---------------10______---------------------------------------------|
B|--------------------10_------------------------------7-------7h8p7--|
G|-------7--9b11_________--11r9p7---------7-7----7-7-------7----------|
D|-7--9-----------------------------------7-7----7-9------------------|
A|--------------------------------5---7/9-----------------------------|
E|--------------------------------------------------------------------|

E|----7------------------___-------7--------7--9-------10--10--------7------------|
B|-------7--8----8-------8p7-----7---8------------8------------7--------10--------|
G|----------------------------7---9------9------------------------7---------7-----|
D|-9------------------9-----------------------------------------------------------|
A|--------------------------------------------------------------------------------|
E|--------------------------------------------------------------------------------|

E|-10----7---------------10----9--7-----------5----------------------|
B|----------10-----------------------7-----7--------7p5-----7p5------|
G|--------------7--7------------------------------------7-------7----|
D|-------------------------------------------------------------------|
A|-------------------------------------------------------------------|
E|-------------------------------------------------------------------|

E|----------------------------------------------10--------------|
B|-10--------10---8---7----------------------7--------7--7p5----|
G|----------------------------7--7h9---7--9------------------7--|
D|-----7--------------------7-----------------------------------|
A|--------------------------------------------------------------|
E|--------------------------------------------------------------|

E|-------5--------------10-----___------------10--------------------------|
B|----------5--------7------7--7p5---------7---------7---7p5--------------|
G|-5-----------7--9------------------7--9--------------------7----7p4-7---|
D|------------------------------------------------------------------------|
A|----7-------------------------------------------------------------------|
E|------------------------------------------------------------------------|

E|---------------------7--9--10--------------14--14-------|
B|-----------7--8--10-------------------------------------|
G|-----7--9------------------------11--12/14-14------14---|
D|-7h9----------------------------------------------------|
A|--------------------------------------------------------|
E|--------------------------------------------------------|

E|------14-14-14------------------------14---------|
B|-------------------------------------------------|
G|------14-14-14------14----------------------14...|
D|-12-------------12------12--12----14-------------|
A|-------------------------------------------------|
E|-------------------------------------------------|

 O ooo        Ooooo        Oooo        Oooo

Clipes